  0
SECTION
  2
HEADER
  9
$ACADVER
  1
AC1006
  9
$DWGCODEPAGE
  3
ansi_1252
  9
$INSBASE
 10
0.0
 20
0.0
 30
0.0
  9
$EXTMIN
 10
1582.977050111568
 20
1332.875268596481
  9
$EXTMAX
 10
1917.194569483171
 20
1666.933681286567
  9
$LIMMIN
 10
0.0
 20
0.0
  9
$LIMMAX
 10
420.0
 20
297.0
  9
$ORTHOMODE
 70
     0
  9
$REGENMODE
 70
     1
  9
$FILLMODE
 70
     1
  9
$QTEXTMODE
 70
     0
  9
$MIRRTEXT
 70
     0
  9
$DRAGMODE
 70
     2
  9
$LTSCALE
 40
1.0
  9
$OSMODE
 70
    37
  9
$ATTMODE
 70
     1
  9
$TEXTSIZE
 40
2.5
  9
$TRACEWID
 40
1.0
  9
$TEXTSTYLE
  7
SIMPLEX_100
  9
$CLAYER
  8
0
  9
$CELTYPE
  6
BYLAYER
  9
$CECOLOR
 62
   256
  9
$DIMSCALE
 40
50.0
  9
$DIMASZ
 40
3.0
  9
$DIMEXO
 40
1.5
  9
$DIMDLI
 40
10.0
  9
$DIMRND
 40
0.0
  9
$DIMDLE
 40
3.0
  9
$DIMEXE
 40
3.0
  9
$DIMTP
 40
0.0
  9
$DIMTM
 40
0.0
  9
$DIMTXT
 40
2.5
  9
$DIMCEN
 40
4.0
  9
$DIMTSZ
 40
0.0
  9
$DIMTOL
 70
     0
  9
$DIMLIM
 70
     0
  9
$DIMTIH
 70
     0
  9
$DIMTOH
 70
     0
  9
$DIMSE1
 70
     0
  9
$DIMSE2
 70
     0
  9
$DIMTAD
 70
     1
  9
$DIMZIN
 70
     3
  9
$DIMBLK
  1
ARCHTICK
  9
$DIMASO
 70
     1
  9
$DIMSHO
 70
     1
  9
$DIMPOST
  1

  9
$DIMAPOST
  1

  9
$DIMALT
 70
     0
  9
$DIMALTD
 70
     2
  9
$DIMALTF
 40
25.4
  9
$DIMLFAC
 40
1.0
  9
$DIMTOFL
 70
     0
  9
$DIMTVP
 40
0.0
  9
$DIMTIX
 70
     0
  9
$DIMSOXD
 70
     0
  9
$DIMSAH
 70
     0
  9
$DIMBLK1
  1

  9
$DIMBLK2
  1

  9
$LUNITS
 70
     2
  9
$LUPREC
 70
     4
  9
$SKETCHINC
 40
1.0
  9
$FILLETRAD
 40
0.0
  9
$AUNITS
 70
     0
  9
$AUPREC
 70
     0
  9
$MENU
  1
.
  9
$ELEVATION
 40
0.0
  9
$THICKNESS
 40
0.0
  9
$LIMCHECK
 70
     0
  9
$CHAMFERA
 40
0.0
  9
$CHAMFERB
 40
0.0
  9
$SKPOLY
 70
     0
  9
$TDCREATE
 40
2458975.344201389
  9
$TDUPDATE
 40
2458976.259068171
  9
$TDINDWG
 40
0.1704282407
  9
$TDUSRTIMER
 40
0.1704282407
  9
$USRTIMER
 70
     1
  9
$ANGBASE
 50
0.0
  9
$ANGDIR
 70
     0
  9
$PDMODE
 70
     0
  9
$PDSIZE
 40
0.0
  9
$PLINEWID
 40
0.0
  9
$COORDS
 70
     1
  9
$SPLFRAME
 70
     0
  9
$SPLINETYPE
 70
     6
  9
$SPLINESEGS
 70
     8
  9
$ATTDIA
 70
     0
  9
$ATTREQ
 70
     1
  9
$HANDLING
 70
     1
  9
$HANDSEED
  5
1602
  9
$SURFTAB1
 70
     6
  9
$SURFTAB2
 70
     6
  9
$SURFTYPE
 70
     6
  9
$SURFU
 70
     6
  9
$SURFV
 70
     6
  9
$UCSNAME
  2

  9
$UCSORG
 10
0.0
 20
0.0
 30
0.0
  9
$UCSXDIR
 10
1.0
 20
0.0
 30
0.0
  9
$UCSYDIR
 10
0.0
 20
1.0
 30
0.0
  9
$USERI1
 70
     0
  9
$USERI2
 70
     0
  9
$USERI3
 70
     0
  9
$USERI4
 70
     0
  9
$USERI5
 70
     0
  9
$USERR1
 40
0.0
  9
$USERR2
 40
0.0
  9
$USERR3
 40
0.0
  9
$USERR4
 40
0.0
  9
$USERR5
 40
0.0
  9
$WORLDVIEW
 70
     1
  0
ENDSEC
  0
SECTION
  2
TABLES
  0
TABLE
  2
VPORT
 70
     1
  0
VPORT
  2
*ACTIVE
 70
     0
 10
0.0
 20
0.0
 11
1.0
 21
1.0
 12
1832.739345820625
 22
1490.639272787395
 13
0.0
 23
0.0
 14
10.0
 24
10.0
 15
10.0
 25
10.0
 16
0.0
 26
0.0
 36
1.0
 17
0.0
 27
0.0
 37
0.0
 40
458.4747202500075
 41
1.728381374722838
 42
50.0
 43
0.0
 44
0.0
 50
0.0
 51
0.0
 71
     0
 72
  1000
 73
     1
 74
     3
 75
     0
 76
     1
 77
     0
 78
     0
  0
ENDTAB
  0
TABLE
  2
LTYPE
 70
    13
  0
LTYPE
  2
CONTINUOUS
 70
     0
  3
Solid line
 72
    65
 73
     0
 40
0.0
  0
LTYPE
  2
ACAD_ISO02W100
 70
     0
  3
ISO dash __ __ __ __ __ __ __ __ __ __ __ __ __
 72
    65
 73
     2
 40
15.0
 49
12.0
 49
-3.0
  0
LTYPE
  2
ACAD_ISO03W100
 70
     0
  3
ISO dash space __    __    __    __    __    __
 72
    65
 73
     2
 40
30.0
 49
12.0
 49
-18.0
  0
LTYPE
  2
ACAD_ISO04W100
 70
     0
  3
ISO long-dash dot ____ . ____ . ____ . ____ . _
 72
    65
 73
     4
 40
30.0
 49
24.0
 49
-3.0
 49
0.0
 49
-3.0
  0
LTYPE
  2
ACAD_ISO08W100
 70
     0
  3
ISO long-dash short-dash ____ __ ____ __ ____ _
 72
    65
 73
     4
 40
36.0
 49
24.0
 49
-3.0
 49
6.0
 49
-3.0
  0
LTYPE
  2
ACAD_ISO10W100
 70
     0
  3
ISO dash dot __ . __ . __ . __ . __ . __ . __ .
 72
    65
 73
     4
 40
18.0
 49
12.0
 49
-3.0
 49
0.0
 49
-3.0
  0
LTYPE
  2
CENTER
 70
     0
  3
Center ____ _ ____ _ ____ _ ____ _ ____ _ ____
 72
    65
 73
     4
 40
2.0
 49
1.25
 49
-0.25
 49
0.25
 49
-0.25
  0
LTYPE
  2
DASHDOT
 70
     0
  3
Dash dot __ . __ . __ . __ . __ . __ . __ . __
 72
    65
 73
     4
 40
1.0
 49
0.5
 49
-0.25
 49
0.0
 49
-0.25
  0
LTYPE
  2
DASHED
 70
     0
  3
Dashed __ __ __ __ __ __ __ __ __ __ __ __ __ _
 72
    65
 73
     2
 40
0.75
 49
0.5
 49
-0.25
  0
LTYPE
  2
DOT
 70
     0
  3
Dot . . . . . . . . . . . . . . . . . . . . . .
 72
    65
 73
     2
 40
0.25
 49
0.0
 49
-0.25
  0
LTYPE
  2
FENCELINE1
 70
     0
  3
Fenceline circle ----0-----0----0-----0----0---
 72
    65
 73
     4
 40
1.45
 49
0.25
 49
-0.1
 49
-0.1
 49
1.0
  0
LTYPE
  2
HIDDEN
 70
     0
  3
Hidden __ __ __ __ __ __ __ __ __ __ __ __ __ _
 72
    65
 73
     2
 40
0.375
 49
0.25
 49
-0.125
  0
LTYPE
  2
ZIGZAG
 70
     0
  3
Zig zag /\/\/\/\/\/\/\/\/\/\/\/\/\/\/\/\/\/\/\/
 72
    65
 73
     4
 40
0.8001
 49
0.0001
 49
-0.2
 49
-0.4
 49
-0.2
  0
ENDTAB
  0
TABLE
  2
LAYER
 70
     2
  0
LAYER
  2
0
 70
     0
 62
     7
  6
CONTINUOUS
  0
LAYER
  2
DEFPOINTS
 70
     0
 62
     7
  6
CONTINUOUS
  0
ENDTAB
  0
TABLE
  2
STYLE
 70
    11
  0
STYLE
  2
STANDARD
 70
     0
 40
0.0
 41
1.0
 50
0.0
 71
     0
 42
2.5
  3

  4

  0
STYLE
  2

 70
     1
 40
0.0
 41
1.0
 50
0.0
 71
     0
 42
0.25
  3
ltypeshp.shx
  4

  0
STYLE
  2
SIMPLEX_2_5
 70
     0
 40
2.5
 41
1.0
 50
0.0
 71
     0
 42
2.5
  3
simplex.shx
  4

  0
STYLE
  2
SIMPLEX_3_5
 70
     0
 40
3.5
 41
1.0
 50
0.0
 71
     0
 42
2.5
  3
simplex.shx
  4

  0
STYLE
  2
SIMPLEX_5
 70
     0
 40
5.0
 41
1.0
 50
0.0
 71
     0
 42
2.5
  3
simplex.shx
  4

  0
STYLE
  2
SIMPLEX_7
 70
     0
 40
7.0
 41
1.0
 50
0.0
 71
     0
 42
2.5
  3
simplex.shx
  4

  0
STYLE
  2
SIMPLEX_10
 70
     0
 40
10.0
 41
1.0
 50
0.0
 71
     0
 42
2.5
  3
simplex.shx
  4

  0
STYLE
  2
ANNOTATIVE
 70
     0
 40
0.0
 41
1.0
 50
0.0
 71
     0
 42
0.2
  3
txt
  4

  0
STYLE
  2
SIMPLEX_25
 70
     0
 40
25.0
 41
1.0
 50
0.0
 71
     0
 42
2.5
  3
simplex.shx
  4

  0
STYLE
  2
SIMPLEX_50
 70
     0
 40
50.0
 41
1.0
 50
0.0
 71
     0
 42
2.5
  3
simplex.shx
  4

  0
STYLE
  2
SIMPLEX_100
 70
     0
 40
100.0
 41
1.0
 50
0.0
 71
     0
 42
2.5
  3
simplex.shx
  4

  0
ENDTAB
  0
TABLE
  2
VIEW
 70
     0
  0
ENDTAB
  0
TABLE
  2
UCS
 70
     0
  0
ENDTAB
  0
ENDSEC
  0
SECTION
  2
BLOCKS
  0
BLOCK
  8
0
  2
_ARCHTICK
 70
     0
 10
0.0
 20
0.0
 30
0.0
  0
POLYLINE
  5
2A3
  8
0
  6
BYBLOCK
 62
     0
 66
     1
 10
0.0
 20
0.0
 30
0.0
 40
0.15
 41
0.15
  0
VERTEX
  5
135F
  8
0
  6
BYBLOCK
 62
     0
 10
-0.5
 20
-0.5
 30
0.0
  0
VERTEX
  5
1360
  8
0
  6
BYBLOCK
 62
     0
 10
0.5
 20
0.5
 30
0.0
  0
SEQEND
  5
1601
  8
0
  6
BYBLOCK
 62
     0
  0
ENDBLK
  8
0
  0
ENDSEC
  0
SECTION
  2
ENTITIES
  0
CIRCLE
  5
389
  8
0
 10
1750.066882127563
 20
1499.904826987701
 30
0.0
 40
167.0
  0
CIRCLE
  5
3A2
  8
0
 10
1750.066882127563
 20
1499.904826987701
 30
0.0
 40
3.0
  0
CIRCLE
  5
3A9
  8
0
 10
1880.029069932407
 20
1499.986183758334
 30
0.0
 40
3.0
  0
CIRCLE
  5
3B0
  8
0
 10
1750.005640601803
 20
1370.003980079506
 30
0.0
 40
3.0
  0
CIRCLE
  5
3B7
  8
0
 10
1620.03681428164
 20
1500.179325550133
 30
0.0
 40
3.0
  0
CIRCLE
  5
3BE
  8
0
 10
1749.988909155518
 20
1630.023068194234
 30
0.0
 40
3.0
  0
POLYLINE
  5
3C1
  8
0
 66
     1
 10
0.0
 20
0.0
 30
0.0
 70
     1
  0
VERTEX
  5
92F
  8
0
 10
1650.012162201076
 20
1440.010991972435
 30
0.0
  0
VERTEX
  5
930
  8
0
 10
1650.812162201076
 20
1440.010991972435
 30
0.0
  0
VERTEX
  5
931
  8
0
 10
1650.812162201076
 20
1400.010991972435
 30
0.0
  0
VERTEX
  5
932
  8
0
 10
1650.012162201076
 20
1400.010991972435
 30
0.0
  0
SEQEND
  5
1361
  8
0
  0
POLYLINE
  5
415
  8
0
 66
     1
 10
0.0
 20
0.0
 30
0.0
 70
     1
  0
VERTEX
  5
933
  8
0
 10
1656.262162201076
 20
1440.010991972435
 30
0.0
  0
VERTEX
  5
934
  8
0
 10
1657.062162201076
 20
1440.010991972435
 30
0.0
  0
VERTEX
  5
935
  8
0
 10
1657.062162201076
 20
1400.010991972435
 30
0.0
  0
VERTEX
  5
936
  8
0
 10
1656.262162201076
 20
1400.010991972435
 30
0.0
  0
SEQEND
  5
1362
  8
0
  0
POLYLINE
  5
416
  8
0
 66
     1
 10
0.0
 20
0.0
 30
0.0
 70
     1
  0
VERTEX
  5
937
  8
0
 10
1662.512162201076
 20
1440.010991972435
 30
0.0
  0
VERTEX
  5
938
  8
0
 10
1663.312162201076
 20
1440.010991972435
 30
0.0
  0
VERTEX
  5
939
  8
0
 10
1663.312162201076
 20
1400.010991972435
 30
0.0
  0
VERTEX
  5
93A
  8
0
 10
1662.512162201076
 20
1400.010991972435
 30
0.0
  0
SEQEND
  5
1363
  8
0
  0
POLYLINE
  5
417
  8
0
 66
     1
 10
0.0
 20
0.0
 30
0.0
 70
     1
  0
VERTEX
  5
93B
  8
0
 10
1668.762162201076
 20
1440.010991972435
 30
0.0
  0
VERTEX
  5
93C
  8
0
 10
1669.562162201076
 20
1440.010991972435
 30
0.0
  0
VERTEX
  5
93D
  8
0
 10
1669.562162201076
 20
1400.010991972435
 30
0.0
  0
VERTEX
  5
93E
  8
0
 10
1668.762162201076
 20
1400.010991972435
 30
0.0
  0
SEQEND
  5
1364
  8
0
  0
POLYLINE
  5
418
  8
0
 66
     1
 10
0.0
 20
0.0
 30
0.0
 70
     1
  0
VERTEX
  5
93F
  8
0
 10
1675.012162201076
 20
1440.010991972435
 30
0.0
  0
VERTEX
  5
940
  8
0
 10
1675.812162201076
 20
1440.010991972435
 30
0.0
  0
VERTEX
  5
941
  8
0
 10
1675.812162201076
 20
1400.010991972435
 30
0.0
  0
VERTEX
  5
942
  8
0
 10
1675.012162201076
 20
1400.010991972435
 30
0.0
  0
SEQEND
  5
1365
  8
0
  0
POLYLINE
  5
419
  8
0
 66
     1
 10
0.0
 20
0.0
 30
0.0
 70
     1
  0
VERTEX
  5
943
  8
0
 10
1681.262162201076
 20
1440.010991972435
 30
0.0
  0
VERTEX
  5
944
  8
0
 10
1682.062162201076
 20
1440.010991972435
 30
0.0
  0
VERTEX
  5
945
  8
0
 10
1682.062162201076
 20
1400.010991972435
 30
0.0
  0
VERTEX
  5
946
  8
0
 10
1681.262162201076
 20
1400.010991972435
 30
0.0
  0
SEQEND
  5
1366
  8
0
  0
POLYLINE
  5
41A
  8
0
 66
     1
 10
0.0
 20
0.0
 30
0.0
 70
     1
  0
VERTEX
  5
947
  8
0
 10
1687.512162201076
 20
1440.010991972435
 30
0.0
  0
VERTEX
  5
948
  8
0
 10
1688.312162201076
 20
1440.010991972435
 30
0.0
  0
VERTEX
  5
949
  8
0
 10
1688.312162201076
 20
1400.010991972435
 30
0.0
  0
VERTEX
  5
94A
  8
0
 10
1687.512162201076
 20
1400.010991972435
 30
0.0
  0
SEQEND
  5
1367
  8
0
  0
POLYLINE
  5
41B
  8
0
 66
     1
 10
0.0
 20
0.0
 30
0.0
 70
     1
  0
VERTEX
  5
94B
  8
0
 10
1693.762162201076
 20
1440.010991972435
 30
0.0
  0
VERTEX
  5
94C
  8
0
 10
1694.562162201076
 20
1440.010991972435
 30
0.0
  0
VERTEX
  5
94D
  8
0
 10
1694.562162201076
 20
1400.010991972435
 30
0.0
  0
VERTEX
  5
94E
  8
0
 10
1693.762162201076
 20
1400.010991972435
 30
0.0
  0
SEQEND
  5
1368
  8
0
  0
POLYLINE
  5
41E
  8
0
 66
     1
 10
0.0
 20
0.0
 30
0.0
 70
     1
  0
VERTEX
  5
94F
  8
0
 10
1700.012162201076
 20
1440.010991972435
 30
0.0
  0
VERTEX
  5
950
  8
0
 10
1700.812162201076
 20
1440.010991972435
 30
0.0
  0
VERTEX
  5
951
  8
0
 10
1700.812162201076
 20
1400.010991972435
 30
0.0
  0
VERTEX
  5
952
  8
0
 10
1700.012162201076
 20
1400.010991972435
 30
0.0
  0
SEQEND
  5
1369
  8
0
  0
POLYLINE
  5
422
  8
0
 66
     1
 10
0.0
 20
0.0
 30
0.0
 70
     1
  0
VERTEX
  5
953
  8
0
 10
1646.828996489017
 20
1465.585164749832
 30
0.0
  0
VERTEX
  5
954
  8
0
 10
1647.628996489017
 20
1465.585164749832
 30
0.0
  0
VERTEX
  5
955
  8
0
 10
1647.628996489017
 20
1425.585164749832
 30
0.0
  0
VERTEX
  5
956
  8
0
 10
1646.828996489017
 20
1425.585164749832
 30
0.0
  0
SEQEND
  5
136A
  8
0
  0
POLYLINE
  5
423
  8
0
 66
     1
 10
0.0
 20
0.0
 30
0.0
 70
     1
  0
VERTEX
  5
957
  8
0
 10
1653.078996489017
 20
1465.585164749832
 30
0.0
  0
VERTEX
  5
958
  8
0
 10
1653.878996489017
 20
1465.585164749832
 30
0.0
  0
VERTEX
  5
959
  8
0
 10
1653.878996489017
 20
1425.585164749832
 30
0.0
  0
VERTEX
  5
95A
  8
0
 10
1653.078996489017
 20
1425.585164749832
 30
0.0
  0
SEQEND
  5
136B
  8
0
  0
POLYLINE
  5
424
  8
0
 66
     1
 10
0.0
 20
0.0
 30
0.0
 70
     1
  0
VERTEX
  5
95B
  8
0
 10
1659.328996489017
 20
1465.585164749832
 30
0.0
  0
VERTEX
  5
95C
  8
0
 10
1660.128996489017
 20
1465.585164749832
 30
0.0
  0
VERTEX
  5
95D
  8
0
 10
1660.128996489017
 20
1425.585164749832
 30
0.0
  0
VERTEX
  5
95E
  8
0
 10
1659.328996489017
 20
1425.585164749832
 30
0.0
  0
SEQEND
  5
136C
  8
0
  0
POLYLINE
  5
425
  8
0
 66
     1
 10
0.0
 20
0.0
 30
0.0
 70
     1
  0
VERTEX
  5
95F
  8
0
 10
1665.578996489017
 20
1465.585164749832
 30
0.0
  0
VERTEX
  5
960
  8
0
 10
1666.378996489017
 20
1465.585164749832
 30
0.0
  0
VERTEX
  5
961
  8
0
 10
1666.378996489017
 20
1425.585164749832
 30
0.0
  0
VERTEX
  5
962
  8
0
 10
1665.578996489017
 20
1425.585164749832
 30
0.0
  0
SEQEND
  5
136D
  8
0
  0
POLYLINE
  5
426
  8
0
 66
     1
 10
0.0
 20
0.0
 30
0.0
 70
     1
  0
VERTEX
  5
963
  8
0
 10
1671.828996489017
 20
1465.585164749832
 30
0.0
  0
VERTEX
  5
964
  8
0
 10
1672.628996489017
 20
1465.585164749832
 30
0.0
  0
VERTEX
  5
965
  8
0
 10
1672.628996489017
 20
1425.585164749832
 30
0.0
  0
VERTEX
  5
966
  8
0
 10
1671.828996489017
 20
1425.585164749832
 30
0.0
  0
SEQEND
  5
136E
  8
0
  0
POLYLINE
  5
427
  8
0
 66
     1
 10
0.0
 20
0.0
 30
0.0
 70
     1
  0
VERTEX
  5
967
  8
0
 10
1678.078996489017
 20
1465.585164749832
 30
0.0
  0
VERTEX
  5
968
  8
0
 10
1678.878996489017
 20
1465.585164749832
 30
0.0
  0
VERTEX
  5
969
  8
0
 10
1678.878996489017
 20
1425.585164749832
 30
0.0
  0
VERTEX
  5
96A
  8
0
 10
1678.078996489017
 20
1425.585164749832
 30
0.0
  0
SEQEND
  5
136F
  8
0
  0
POLYLINE
  5
428
  8
0
 66
     1
 10
0.0
 20
0.0
 30
0.0
 70
     1
  0
VERTEX
  5
96B
  8
0
 10
1684.328996489017
 20
1465.585164749832
 30
0.0
  0
VERTEX
  5
96C
  8
0
 10
1685.128996489017
 20
1465.585164749832
 30
0.0
  0
VERTEX
  5
96D
  8
0
 10
1685.128996489017
 20
1425.585164749832
 30
0.0
  0
VERTEX
  5
96E
  8
0
 10
1684.328996489017
 20
1425.585164749832
 30
0.0
  0
SEQEND
  5
1370
  8
0
  0
POLYLINE
  5
435
  8
0
 66
     1
 10
0.0
 20
0.0
 30
0.0
  0
VERTEX
  5
96F
  8
0
 10
1646.64061183025
 20
1381.786214515376
 30
0.0
  0
VERTEX
  5
970
  8
0
 10
1646.64061183025
 20
1412.696325557627
 30
0.0
  0
VERTEX
  5
971
  8
0
 10
1647.44061183025
 20
1412.696325557627
 30
0.0
  0
VERTEX
  5
972
  8
0
 10
1647.44061183025
 20
1381.090481705395
 30
0.0
  0
SEQEND
  5
1371
  8
0
  0
POLYLINE
  5
436
  8
0
 66
     1
 10
0.0
 20
0.0
 30
0.0
  0
VERTEX
  5
973
  8
0
 10
1652.89061183025
 20
1376.593138607793
 30
0.0
  0
VERTEX
  5
974
  8
0
 10
1652.89061183025
 20
1412.696325557627
 30
0.0
  0
VERTEX
  5
975
  8
0
 10
1653.69061183025
 20
1412.696325557627
 30
0.0
  0
VERTEX
  5
976
  8
0
 10
1653.69061183025
 20
1375.966880725955
 30
0.0
  0
SEQEND
  5
1372
  8
0
  0
POLYLINE
  5
437
  8
0
 66
     1
 10
0.0
 20
0.0
 30
0.0
  0
VERTEX
  5
977
  8
0
 10
1659.14061183025
 20
1371.914931410667
 30
0.0
  0
VERTEX
  5
978
  8
0
 10
1659.14061183025
 20
1412.696325557627
 30
0.0
  0
VERTEX
  5
979
  8
0
 10
1659.94061183025
 20
1412.696325557627
 30
0.0
  0
VERTEX
  5
97A
  8
0
 10
1659.94061183025
 20
1371.350342809607
 30
0.0
  0
SEQEND
  5
1373
  8
0
  0
POLYLINE
  5
438
  8
0
 66
     1
 10
0.0
 20
0.0
 30
0.0
  0
VERTEX
  5
97B
  8
0
 10
1665.39061183025
 20
1367.696925376124
 30
0.0
  0
VERTEX
  5
97C
  8
0
 10
1665.39061183025
 20
1412.696325557627
 30
0.0
  0
VERTEX
  5
97D
  8
0
 10
1666.19061183025
 20
1412.696325557627
 30
0.0
  0
VERTEX
  5
97E
  8
0
 10
1666.19061183025
 20
1367.187943054224
 30
0.0
  0
SEQEND
  5
1374
  8
0
  0
POLYLINE
  5
439
  8
0
 66
     1
 10
0.0
 20
0.0
 30
0.0
  0
VERTEX
  5
97F
  8
0
 10
1671.64061183025
 20
1363.896297375574
 30
0.0
  0
VERTEX
  5
980
  8
0
 10
1671.64061183025
 20
1412.696325557627
 30
0.0
  0
VERTEX
  5
981
  8
0
 10
1672.44061183025
 20
1412.696325557627
 30
0.0
  0
VERTEX
  5
982
  8
0
 10
1672.44061183025
 20
1363.438119840029
 30
0.0
  0
SEQEND
  5
1375
  8
0
  0
POLYLINE
  5
43A
  8
0
 66
     1
 10
0.0
 20
0.0
 30
0.0
  0
VERTEX
  5
983
  8
0
 10
1677.89061183025
 20
1360.478911154348
 30
0.0
  0
VERTEX
  5
984
  8
0
 10
1677.89061183025
 20
1412.696325557627
 30
0.0
  0
VERTEX
  5
985
  8
0
 10
1678.69061183025
 20
1412.696325557627
 30
0.0
  0
VERTEX
  5
986
  8
0
 10
1678.69061183025
 20
1360.067678709981
 30
0.0
  0
SEQEND
  5
1376
  8
0
  0
POLYLINE
  5
43B
  8
0
 66
     1
 10
0.0
 20
0.0
 30
0.0
 70
     1
  0
VERTEX
  5
987
  8
0
 10
1690.578996489017
 20
1465.585164749832
 30
0.0
  0
VERTEX
  5
988
  8
0
 10
1691.378996489017
 20
1465.585164749832
 30
0.0
  0
VERTEX
  5
989
  8
0
 10
1691.378996489017
 20
1425.585164749832
 30
0.0
  0
VERTEX
  5
98A
  8
0
 10
1690.578996489017
 20
1425.585164749832
 30
0.0
  0
SEQEND
  5
1377
  8
0
  0
POLYLINE
  5
43C
  8
0
 66
     1
 10
0.0
 20
0.0
 30
0.0
 70
     1
  0
VERTEX
  5
98B
  8
0
 10
1696.828996489017
 20
1465.585164749832
 30
0.0
  0
VERTEX
  5
98C
  8
0
 10
1697.628996489017
 20
1465.585164749832
 30
0.0
  0
VERTEX
  5
98D
  8
0
 10
1697.628996489017
 20
1425.585164749832
 30
0.0
  0
VERTEX
  5
98E
  8
0
 10
1696.828996489017
 20
1425.585164749832
 30
0.0
  0
SEQEND
  5
1378
  8
0
  0
POLYLINE
  5
43D
  8
0
 66
     1
 10
0.0
 20
0.0
 30
0.0
 70
     1
  0
VERTEX
  5
98F
  8
0
 10
1684.14061183025
 20
1412.696325557627
 30
0.0
  0
VERTEX
  5
990
  8
0
 10
1684.94061183025
 20
1412.696325557627
 30
0.0
  0
VERTEX
  5
991
  8
0
 10
1684.94061183025
 20
1372.696325557627
 30
0.0
  0
VERTEX
  5
992
  8
0
 10
1684.14061183025
 20
1372.696325557627
 30
0.0
  0
SEQEND
  5
1379
  8
0
  0
POLYLINE
  5
43E
  8
0
 66
     1
 10
0.0
 20
0.0
 30
0.0
 70
     1
  0
VERTEX
  5
993
  8
0
 10
1690.39061183025
 20
1412.696325557627
 30
0.0
  0
VERTEX
  5
994
  8
0
 10
1691.19061183025
 20
1412.696325557627
 30
0.0
  0
VERTEX
  5
995
  8
0
 10
1691.19061183025
 20
1372.696325557627
 30
0.0
  0
VERTEX
  5
996
  8
0
 10
1690.39061183025
 20
1372.696325557627
 30
0.0
  0
SEQEND
  5
137A
  8
0
  0
POLYLINE
  5
43F
  8
0
 66
     1
 10
0.0
 20
0.0
 30
0.0
 70
     1
  0
VERTEX
  5
997
  8
0
 10
1696.64061183025
 20
1412.696325557627
 30
0.0
  0
VERTEX
  5
998
  8
0
 10
1697.44061183025
 20
1412.696325557627
 30
0.0
  0
VERTEX
  5
999
  8
0
 10
1697.44061183025
 20
1372.696325557627
 30
0.0
  0
VERTEX
  5
99A
  8
0
 10
1696.64061183025
 20
1372.696325557627
 30
0.0
  0
SEQEND
  5
137B
  8
0
  0
POLYLINE
  5
440
  8
0
 66
     1
 10
0.0
 20
0.0
 30
0.0
  0
VERTEX
  5
99B
  8
0
 10
1650.812162201076
 20
1495.054012017345
 30
0.0
  0
VERTEX
  5
99C
  8
0
 10
1650.812162201076
 20
1450.010991972435
 30
0.0
  0
VERTEX
  5
99D
  8
0
 10
1650.012162201076
 20
1450.010991972435
 30
0.0
  0
VERTEX
  5
99E
  8
0
 10
1650.012162201076
 20
1495.054012017345
 30
0.0
  0
SEQEND
  5
137C
  8
0
  0
POLYLINE
  5
441
  8
0
 66
     1
 10
0.0
 20
0.0
 30
0.0
  0
VERTEX
  5
99F
  8
0
 10
1657.062162201076
 20
1495.054012017345
 30
0.0
  0
VERTEX
  5
9A0
  8
0
 10
1657.062162201076
 20
1450.010991972435
 30
0.0
  0
VERTEX
  5
9A1
  8
0
 10
1656.262162201076
 20
1450.010991972435
 30
0.0
  0
VERTEX
  5
9A2
  8
0
 10
1656.262162201076
 20
1495.054012017345
 30
0.0
  0
SEQEND
  5
137D
  8
0
  0
POLYLINE
  5
442
  8
0
 66
     1
 10
0.0
 20
0.0
 30
0.0
  0
VERTEX
  5
9A3
  8
0
 10
1663.312162201076
 20
1495.054012017345
 30
0.0
  0
VERTEX
  5
9A4
  8
0
 10
1663.312162201076
 20
1450.010991972435
 30
0.0
  0
VERTEX
  5
9A5
  8
0
 10
1662.512162201076
 20
1450.010991972435
 30
0.0
  0
VERTEX
  5
9A6
  8
0
 10
1662.512162201076
 20
1495.054012017345
 30
0.0
  0
SEQEND
  5
137E
  8
0
  0
POLYLINE
  5
443
  8
0
 66
     1
 10
0.0
 20
0.0
 30
0.0
  0
VERTEX
  5
9A7
  8
0
 10
1669.562162201076
 20
1495.054012017345
 30
0.0
  0
VERTEX
  5
9A8
  8
0
 10
1669.562162201076
 20
1450.010991972435
 30
0.0
  0
VERTEX
  5
9A9
  8
0
 10
1668.762162201076
 20
1450.010991972435
 30
0.0
  0
VERTEX
  5
9AA
  8
0
 10
1668.762162201076
 20
1495.054012017345
 30
0.0
  0
SEQEND
  5
137F
  8
0
  0
POLYLINE
  5
444
  8
0
 66
     1
 10
0.0
 20
0.0
 30
0.0
  0
VERTEX
  5
9AB
  8
0
 10
1675.812162201076
 20
1495.054012017345
 30
0.0
  0
VERTEX
  5
9AC
  8
0
 10
1675.812162201076
 20
1450.010991972435
 30
0.0
  0
VERTEX
  5
9AD
  8
0
 10
1675.012162201076
 20
1450.010991972435
 30
0.0
  0
VERTEX
  5
9AE
  8
0
 10
1675.012162201076
 20
1495.054012017345
 30
0.0
  0
SEQEND
  5
1380
  8
0
  0
POLYLINE
  5
445
  8
0
 66
     1
 10
0.0
 20
0.0
 30
0.0
  0
VERTEX
  5
9AF
  8
0
 10
1682.062162201076
 20
1495.054012017345
 30
0.0
  0
VERTEX
  5
9B0
  8
0
 10
1682.062162201076
 20
1450.010991972435
 30
0.0
  0
VERTEX
  5
9B1
  8
0
 10
1681.262162201076
 20
1450.010991972435
 30
0.0
  0
VERTEX
  5
9B2
  8
0
 10
1681.262162201076
 20
1495.054012017345
 30
0.0
  0
SEQEND
  5
1381
  8
0
  0
POLYLINE
  5
446
  8
0
 66
     1
 10
0.0
 20
0.0
 30
0.0
  0
VERTEX
  5
9B3
  8
0
 10
1688.312162201076
 20
1495.054012017345
 30
0.0
  0
VERTEX
  5
9B4
  8
0
 10
1688.312162201076
 20
1450.010991972435
 30
0.0
  0
VERTEX
  5
9B5
  8
0
 10
1687.512162201076
 20
1450.010991972435
 30
0.0
  0
VERTEX
  5
9B6
  8
0
 10
1687.512162201076
 20
1495.054012017345
 30
0.0
  0
SEQEND
  5
1382
  8
0
  0
POLYLINE
  5
447
  8
0
 66
     1
 10
0.0
 20
0.0
 30
0.0
  0
VERTEX
  5
9B7
  8
0
 10
1694.562162201076
 20
1495.054012017345
 30
0.0
  0
VERTEX
  5
9B8
  8
0
 10
1694.562162201076
 20
1450.010991972435
 30
0.0
  0
VERTEX
  5
9B9
  8
0
 10
1693.762162201076
 20
1450.010991972435
 30
0.0
  0
VERTEX
  5
9BA
  8
0
 10
1693.762162201076
 20
1495.054012017345
 30
0.0
  0
SEQEND
  5
1383
  8
0
  0
POLYLINE
  5
448
  8
0
 66
     1
 10
0.0
 20
0.0
 30
0.0
  0
VERTEX
  5
9BB
  8
0
 10
1700.812162201076
 20
1495.054012017345
 30
0.0
  0
VERTEX
  5
9BC
  8
0
 10
1700.812162201076
 20
1450.010991972435
 30
0.0
  0
VERTEX
  5
9BD
  8
0
 10
1700.012162201076
 20
1450.010991972435
 30
0.0
  0
VERTEX
  5
9BE
  8
0
 10
1700.012162201076
 20
1495.054012017345
 30
0.0
  0
SEQEND
  5
1384
  8
0
  0
POLYLINE
  5
449
  8
0
 66
     1
 10
0.0
 20
0.0
 30
0.0
 70
     1
  0
VERTEX
  5
9BF
  8
0
 10
1706.262162201076
 20
1440.010991972435
 30
0.0
  0
VERTEX
  5
9C0
  8
0
 10
1707.062162201076
 20
1440.010991972435
 30
0.0
  0
VERTEX
  5
9C1
  8
0
 10
1707.062162201076
 20
1400.010991972435
 30
0.0
  0
VERTEX
  5
9C2
  8
0
 10
1706.262162201076
 20
1400.010991972435
 30
0.0
  0
SEQEND
  5
1385
  8
0
  0
POLYLINE
  5
44A
  8
0
 66
     1
 10
0.0
 20
0.0
 30
0.0
 70
     1
  0
VERTEX
  5
9C3
  8
0
 10
1712.512162201076
 20
1440.010991972435
 30
0.0
  0
VERTEX
  5
9C4
  8
0
 10
1713.312162201076
 20
1440.010991972435
 30
0.0
  0
VERTEX
  5
9C5
  8
0
 10
1713.312162201076
 20
1400.010991972435
 30
0.0
  0
VERTEX
  5
9C6
  8
0
 10
1712.512162201076
 20
1400.010991972435
 30
0.0
  0
SEQEND
  5
1386
  8
0
  0
POLYLINE
  5
44B
  8
0
 66
     1
 10
0.0
 20
0.0
 30
0.0
 70
     1
  0
VERTEX
  5
9C7
  8
0
 10
1718.762162201076
 20
1440.010991972435
 30
0.0
  0
VERTEX
  5
9C8
  8
0
 10
1719.562162201076
 20
1440.010991972435
 30
0.0
  0
VERTEX
  5
9C9
  8
0
 10
1719.562162201076
 20
1400.010991972435
 30
0.0
  0
VERTEX
  5
9CA
  8
0
 10
1718.762162201076
 20
1400.010991972435
 30
0.0
  0
SEQEND
  5
1387
  8
0
  0
POLYLINE
  5
44C
  8
0
 66
     1
 10
0.0
 20
0.0
 30
0.0
 70
     1
  0
VERTEX
  5
9CB
  8
0
 10
1725.012162201076
 20
1440.010991972435
 30
0.0
  0
VERTEX
  5
9CC
  8
0
 10
1725.812162201076
 20
1440.010991972435
 30
0.0
  0
VERTEX
  5
9CD
  8
0
 10
1725.812162201076
 20
1400.010991972435
 30
0.0
  0
VERTEX
  5
9CE
  8
0
 10
1725.012162201076
 20
1400.010991972435
 30
0.0
  0
SEQEND
  5
1388
  8
0
  0
POLYLINE
  5
44D
  8
0
 66
     1
 10
0.0
 20
0.0
 30
0.0
 70
     1
  0
VERTEX
  5
9CF
  8
0
 10
1731.262162201076
 20
1440.010991972435
 30
0.0
  0
VERTEX
  5
9D0
  8
0
 10
1732.062162201076
 20
1440.010991972435
 30
0.0
  0
VERTEX
  5
9D1
  8
0
 10
1732.062162201076
 20
1400.010991972435
 30
0.0
  0
VERTEX
  5
9D2
  8
0
 10
1731.262162201076
 20
1400.010991972435
 30
0.0
  0
SEQEND
  5
1389
  8
0
  0
POLYLINE
  5
44E
  8
0
 66
     1
 10
0.0
 20
0.0
 30
0.0
 70
     1
  0
VERTEX
  5
9D3
  8
0
 10
1737.512162201076
 20
1440.010991972435
 30
0.0
  0
VERTEX
  5
9D4
  8
0
 10
1738.312162201076
 20
1440.010991972435
 30
0.0
  0
VERTEX
  5
9D5
  8
0
 10
1738.312162201076
 20
1400.010991972435
 30
0.0
  0
VERTEX
  5
9D6
  8
0
 10
1737.512162201076
 20
1400.010991972435
 30
0.0
  0
SEQEND
  5
138A
  8
0
  0
POLYLINE
  5
44F
  8
0
 66
     1
 10
0.0
 20
0.0
 30
0.0
 70
     1
  0
VERTEX
  5
9D7
  8
0
 10
1743.762162201076
 20
1440.010991972435
 30
0.0
  0
VERTEX
  5
9D8
  8
0
 10
1744.562162201076
 20
1440.010991972435
 30
0.0
  0
VERTEX
  5
9D9
  8
0
 10
1744.562162201076
 20
1400.010991972435
 30
0.0
  0
VERTEX
  5
9DA
  8
0
 10
1743.762162201076
 20
1400.010991972435
 30
0.0
  0
SEQEND
  5
138B
  8
0
  0
POLYLINE
  5
452
  8
0
 66
     1
 10
0.0
 20
0.0
 30
0.0
  0
VERTEX
  5
9DB
  8
0
 10
1707.062162201076
 20
1495.054012017345
 30
0.0
  0
VERTEX
  5
9DC
  8
0
 10
1707.062162201076
 20
1450.010991972435
 30
0.0
  0
VERTEX
  5
9DD
  8
0
 10
1706.262162201076
 20
1450.010991972435
 30
0.0
  0
VERTEX
  5
9DE
  8
0
 10
1706.262162201076
 20
1495.054012017345
 30
0.0
  0
SEQEND
  5
138C
  8
0
  0
POLYLINE
  5
453
  8
0
 66
     1
 10
0.0
 20
0.0
 30
0.0
  0
VERTEX
  5
9DF
  8
0
 10
1713.312162201076
 20
1495.054012017345
 30
0.0
  0
VERTEX
  5
9E0
  8
0
 10
1713.312162201076
 20
1450.010991972435
 30
0.0
  0
VERTEX
  5
9E1
  8
0
 10
1712.512162201076
 20
1450.010991972435
 30
0.0
  0
VERTEX
  5
9E2
  8
0
 10
1712.512162201076
 20
1495.054012017345
 30
0.0
  0
SEQEND
  5
138D
  8
0
  0
POLYLINE
  5
454
  8
0
 66
     1
 10
0.0
 20
0.0
 30
0.0
  0
VERTEX
  5
9E3
  8
0
 10
1719.562162201076
 20
1495.054012017345
 30
0.0
  0
VERTEX
  5
9E4
  8
0
 10
1719.562162201076
 20
1450.010991972435
 30
0.0
  0
VERTEX
  5
9E5
  8
0
 10
1718.762162201076
 20
1450.010991972435
 30
0.0
  0
VERTEX
  5
9E6
  8
0
 10
1718.762162201076
 20
1495.054012017345
 30
0.0
  0
SEQEND
  5
138E
  8
0
  0
POLYLINE
  5
455
  8
0
 66
     1
 10
0.0
 20
0.0
 30
0.0
  0
VERTEX
  5
9E7
  8
0
 10
1725.812162201076
 20
1495.054012017345
 30
0.0
  0
VERTEX
  5
9E8
  8
0
 10
1725.812162201076
 20
1450.010991972435
 30
0.0
  0
VERTEX
  5
9E9
  8
0
 10
1725.012162201076
 20
1450.010991972435
 30
0.0
  0
VERTEX
  5
9EA
  8
0
 10
1725.012162201076
 20
1495.054012017345
 30
0.0
  0
SEQEND
  5
138F
  8
0
  0
POLYLINE
  5
456
  8
0
 66
     1
 10
0.0
 20
0.0
 30
0.0
  0
VERTEX
  5
9EB
  8
0
 10
1732.062162201076
 20
1495.054012017345
 30
0.0
  0
VERTEX
  5
9EC
  8
0
 10
1732.062162201076
 20
1450.010991972435
 30
0.0
  0
VERTEX
  5
9ED
  8
0
 10
1731.262162201076
 20
1450.010991972435
 30
0.0
  0
VERTEX
  5
9EE
  8
0
 10
1731.262162201076
 20
1495.054012017345
 30
0.0
  0
SEQEND
  5
1390
  8
0
  0
POLYLINE
  5
457
  8
0
 66
     1
 10
0.0
 20
0.0
 30
0.0
  0
VERTEX
  5
9EF
  8
0
 10
1738.312162201076
 20
1495.054012017345
 30
0.0
  0
VERTEX
  5
9F0
  8
0
 10
1738.312162201076
 20
1450.010991972435
 30
0.0
  0
VERTEX
  5
9F1
  8
0
 10
1737.512162201076
 20
1450.010991972435
 30
0.0
  0
VERTEX
  5
9F2
  8
0
 10
1737.512162201076
 20
1495.054012017345
 30
0.0
  0
SEQEND
  5
1391
  8
0
  0
POLYLINE
  5
458
  8
0
 66
     1
 10
0.0
 20
0.0
 30
0.0
  0
VERTEX
  5
9F3
  8
0
 10
1744.562162201076
 20
1495.054012017345
 30
0.0
  0
VERTEX
  5
9F4
  8
0
 10
1744.562162201076
 20
1450.010991972435
 30
0.0
  0
VERTEX
  5
9F5
  8
0
 10
1743.762162201076
 20
1450.010991972435
 30
0.0
  0
VERTEX
  5
9F6
  8
0
 10
1743.762162201076
 20
1495.054012017345
 30
0.0
  0
SEQEND
  5
1392
  8
0
  0
POLYLINE
  5
45B
  8
0
 66
     1
 10
0.0
 20
0.0
 30
0.0
 70
     1
  0
VERTEX
  5
9F7
  8
0
 10
1706.262162201076
 20
1440.010991972435
 30
0.0
  0
VERTEX
  5
9F8
  8
0
 10
1707.062162201076
 20
1440.010991972435
 30
0.0
  0
VERTEX
  5
9F9
  8
0
 10
1707.062162201076
 20
1400.010991972435
 30
0.0
  0
VERTEX
  5
9FA
  8
0
 10
1706.262162201076
 20
1400.010991972435
 30
0.0
  0
SEQEND
  5
1393
  8
0
  0
POLYLINE
  5
45C
  8
0
 66
     1
 10
0.0
 20
0.0
 30
0.0
 70
     1
  0
VERTEX
  5
9FB
  8
0
 10
1712.512162201076
 20
1440.010991972435
 30
0.0
  0
VERTEX
  5
9FC
  8
0
 10
1713.312162201076
 20
1440.010991972435
 30
0.0
  0
VERTEX
  5
9FD
  8
0
 10
1713.312162201076
 20
1400.010991972435
 30
0.0
  0
VERTEX
  5
9FE
  8
0
 10
1712.512162201076
 20
1400.010991972435
 30
0.0
  0
SEQEND
  5
1394
  8
0
  0
POLYLINE
  5
45D
  8
0
 66
     1
 10
0.0
 20
0.0
 30
0.0
 70
     1
  0
VERTEX
  5
9FF
  8
0
 10
1718.762162201076
 20
1440.010991972435
 30
0.0
  0
VERTEX
  5
A00
  8
0
 10
1719.562162201076
 20
1440.010991972435
 30
0.0
  0
VERTEX
  5
A01
  8
0
 10
1719.562162201076
 20
1400.010991972435
 30
0.0
  0
VERTEX
  5
A02
  8
0
 10
1718.762162201076
 20
1400.010991972435
 30
0.0
  0
SEQEND
  5
1395
  8
0
  0
POLYLINE
  5
45E
  8
0
 66
     1
 10
0.0
 20
0.0
 30
0.0
 70
     1
  0
VERTEX
  5
A03
  8
0
 10
1725.012162201076
 20
1440.010991972435
 30
0.0
  0
VERTEX
  5
A04
  8
0
 10
1725.812162201076
 20
1440.010991972435
 30
0.0
  0
VERTEX
  5
A05
  8
0
 10
1725.812162201076
 20
1400.010991972435
 30
0.0
  0
VERTEX
  5
A06
  8
0
 10
1725.012162201076
 20
1400.010991972435
 30
0.0
  0
SEQEND
  5
1396
  8
0
  0
POLYLINE
  5
45F
  8
0
 66
     1
 10
0.0
 20
0.0
 30
0.0
 70
     1
  0
VERTEX
  5
A07
  8
0
 10
1731.262162201076
 20
1440.010991972435
 30
0.0
  0
VERTEX
  5
A08
  8
0
 10
1732.062162201076
 20
1440.010991972435
 30
0.0
  0
VERTEX
  5
A09
  8
0
 10
1732.062162201076
 20
1400.010991972435
 30
0.0
  0
VERTEX
  5
A0A
  8
0
 10
1731.262162201076
 20
1400.010991972435
 30
0.0
  0
SEQEND
  5
1397
  8
0
  0
POLYLINE
  5
460
  8
0
 66
     1
 10
0.0
 20
0.0
 30
0.0
 70
     1
  0
VERTEX
  5
A0B
  8
0
 10
1737.512162201076
 20
1440.010991972435
 30
0.0
  0
VERTEX
  5
A0C
  8
0
 10
1738.312162201076
 20
1440.010991972435
 30
0.0
  0
VERTEX
  5
A0D
  8
0
 10
1738.312162201076
 20
1400.010991972435
 30
0.0
  0
VERTEX
  5
A0E
  8
0
 10
1737.512162201076
 20
1400.010991972435
 30
0.0
  0
SEQEND
  5
1398
  8
0
  0
POLYLINE
  5
461
  8
0
 66
     1
 10
0.0
 20
0.0
 30
0.0
 70
     1
  0
VERTEX
  5
A0F
  8
0
 10
1743.762162201076
 20
1440.010991972435
 30
0.0
  0
VERTEX
  5
A10
  8
0
 10
1744.562162201076
 20
1440.010991972435
 30
0.0
  0
VERTEX
  5
A11
  8
0
 10
1744.562162201076
 20
1400.010991972435
 30
0.0
  0
VERTEX
  5
A12
  8
0
 10
1743.762162201076
 20
1400.010991972435
 30
0.0
  0
SEQEND
  5
1399
  8
0
  0
POLYLINE
  5
468
  8
0
 66
     1
 10
0.0
 20
0.0
 30
0.0
  0
VERTEX
  5
A13
  8
0
 10
1618.762162201076
 20
1413.834678126283
 30
0.0
  0
VERTEX
  5
A14
  8
0
 10
1618.762162201076
 20
1440.010991972435
 30
0.0
  0
VERTEX
  5
A15
  8
0
 10
1619.562162201076
 20
1440.010991972435
 30
0.0
  0
VERTEX
  5
A16
  8
0
 10
1619.562162201076
 20
1412.626432886359
 30
0.0
  0
SEQEND
  5
139A
  8
0
  0
POLYLINE
  5
469
  8
0
 66
     1
 10
0.0
 20
0.0
 30
0.0
  0
VERTEX
  5
A17
  8
0
 10
1625.012162201076
 20
1404.982137265444
 30
0.0
  0
VERTEX
  5
A18
  8
0
 10
1625.012162201076
 20
1440.010991972435
 30
0.0
  0
VERTEX
  5
A19
  8
0
 10
1625.812162201076
 20
1440.010991972435
 30
0.0
  0
VERTEX
  5
A1A
  8
0
 10
1625.812162201076
 20
1403.937308649515
 30
0.0
  0
SEQEND
  5
139B
  8
0
  0
POLYLINE
  5
46A
  8
0
 66
     1
 10
0.0
 20
0.0
 30
0.0
  0
VERTEX
  5
A1B
  8
0
 10
1631.262162201076
 20
1397.267414105317
 30
0.0
  0
VERTEX
  5
A1C
  8
0
 10
1631.262162201076
 20
1440.010991972435
 30
0.0
  0
VERTEX
  5
A1D
  8
0
 10
1632.062162201076
 20
1440.010991972435
 30
0.0
  0
VERTEX
  5
A1E
  8
0
 10
1632.062162201076
 20
1396.348629321549
 30
0.0
  0
SEQEND
  5
139C
  8
0
  0
POLYLINE
  5
46B
  8
0
 66
     1
 10
0.0
 20
0.0
 30
0.0
  0
VERTEX
  5
A1F
  8
0
 10
1637.512162201076
 20
1390.449653412991
 30
0.0
  0
VERTEX
  5
A20
  8
0
 10
1637.512162201076
 20
1440.010991972435
 30
0.0
  0
VERTEX
  5
A21
  8
0
 10
1638.312162201076
 20
1440.010991972435
 30
0.0
  0
VERTEX
  5
A22
  8
0
 10
1638.312162201076
 20
1389.632969407662
 30
0.0
  0
SEQEND
  5
139D
  8
0
  0
POLYLINE
  5
46C
  8
0
 66
     1
 10
0.0
 20
0.0
 30
0.0
 70
     1
  0
VERTEX
  5
A23
  8
0
 10
1643.762162201076
 20
1440.010991972435
 30
0.0
  0
VERTEX
  5
A24
  8
0
 10
1644.562162201076
 20
1440.010991972435
 30
0.0
  0
VERTEX
  5
A25
  8
0
 10
1644.562162201076
 20
1400.010991972435
 30
0.0
  0
VERTEX
  5
A26
  8
0
 10
1643.762162201076
 20
1400.010991972435
 30
0.0
  0
SEQEND
  5
139E
  8
0
  0
POLYLINE
  5
46D
  8
0
 66
     1
 10
0.0
 20
0.0
 30
0.0
  0
VERTEX
  5
A27
  8
0
 10
1700.012162201076
 20
1351.097821060289
 30
0.0
  0
VERTEX
  5
A28
  8
0
 10
1700.012162201076
 20
1390.010991972435
 30
0.0
  0
VERTEX
  5
A29
  8
0
 10
1700.812162201076
 20
1390.010991972435
 30
0.0
  0
VERTEX
  5
A2A
  8
0
 10
1700.812162201076
 20
1350.831111782896
 30
0.0
  0
SEQEND
  5
139F
  8
0
  0
POLYLINE
  5
46E
  8
0
 66
     1
 10
0.0
 20
0.0
 30
0.0
  0
VERTEX
  5
A2B
  8
0
 10
1706.262162201076
 20
1349.139623733893
 30
0.0
  0
VERTEX
  5
A2C
  8
0
 10
1706.262162201076
 20
1390.010991972435
 30
0.0
  0
VERTEX
  5
A2D
  8
0
 10
1707.062162201076
 20
1390.010991972435
 30
0.0
  0
VERTEX
  5
A2E
  8
0
 10
1707.062162201076
 20
1348.90948247654
 30
0.0
  0
SEQEND
  5
13A0
  8
0
  0
POLYLINE
  5
46F
  8
0
 66
     1
 10
0.0
 20
0.0
 30
0.0
  0
VERTEX
  5
A2F
  8
0
 10
1712.512162201076
 20
1347.462565750067
 30
0.0
  0
VERTEX
  5
A30
  8
0
 10
1712.512162201076
 20
1390.010991972435
 30
0.0
  0
VERTEX
  5
A31
  8
0
 10
1713.312162201076
 20
1390.010991972435
 30
0.0
  0
VERTEX
  5
A32
  8
0
 10
1713.312162201076
 20
1347.26770645955
 30
0.0
  0
SEQEND
  5
13A1
  8
0
  0
POLYLINE
  5
470
  8
0
 66
     1
 10
0.0
 20
0.0
 30
0.0
  0
VERTEX
  5
A33
  8
0
 10
1718.762162201076
 20
1346.05745291091
 30
0.0
  0
VERTEX
  5
A34
  8
0
 10
1718.762162201076
 20
1390.010991972435
 30
0.0
  0
VERTEX
  5
A35
  8
0
 10
1719.562162201076
 20
1390.010991972435
 30
0.0
  0
VERTEX
  5
A36
  8
0
 10
1719.562162201076
 20
1345.896833486693
 30
0.0
  0
SEQEND
  5
13A2
  8
0
  0
POLYLINE
  5
471
  8
0
 66
     1
 10
0.0
 20
0.0
 30
0.0
  0
VERTEX
  5
A37
  8
0
 10
1725.012162201076
 20
1344.916888716992
 30
0.0
  0
VERTEX
  5
A38
  8
0
 10
1725.012162201076
 20
1390.010991972435
 30
0.0
  0
VERTEX
  5
A39
  8
0
 10
1725.812162201076
 20
1390.010991972435
 30
0.0
  0
VERTEX
  5
A3A
  8
0
 10
1725.812162201076
 20
1344.789680850105
 30
0.0
  0
SEQEND
  5
13A3
  8
0
  0
POLYLINE
  5
472
  8
0
 66
     1
 10
0.0
 20
0.0
 30
0.0
  0
VERTEX
  5
A3B
  8
0
 10
1731.262162201076
 20
1344.035065621084
 30
0.0
  0
VERTEX
  5
A3C
  8
0
 10
1731.262162201076
 20
1390.010991972435
 30
0.0
  0
VERTEX
  5
A3D
  8
0
 10
1732.062162201076
 20
1390.010991972435
 30
0.0
  0
VERTEX
  5
A3E
  8
0
 10
1732.062162201076
 20
1343.940632185276
 30
0.0
  0
SEQEND
  5
13A4
  8
0
  0
POLYLINE
  5
473
  8
0
 66
     1
 10
0.0
 20
0.0
 30
0.0
  0
VERTEX
  5
A3F
  8
0
 10
1737.512162201076
 20
1343.407609735868
 30
0.0
  0
VERTEX
  5
A40
  8
0
 10
1737.512162201076
 20
1390.010991972435
 30
0.0
  0
VERTEX
  5
A41
  8
0
 10
1738.312162201076
 20
1390.010991972435
 30
0.0
  0
VERTEX
  5
A42
  8
0
 10
1738.312162201076
 20
1343.345488207002
 30
0.0
  0
SEQEND
  5
13A5
  8
0
  0
POLYLINE
  5
474
  8
0
 66
     1
 10
0.0
 20
0.0
 30
0.0
  0
VERTEX
  5
A43
  8
0
 10
1743.762162201076
 20
1343.031468807771
 30
0.0
  0
VERTEX
  5
A44
  8
0
 10
1743.762162201076
 20
1368.195948702662
 30
0.0
  0
SEQEND
  5
13A6
  8
0
  0
POLYLINE
  5
477
  8
0
 66
     1
 10
0.0
 20
0.0
 30
0.0
  0
VERTEX
  5
A45
  8
0
 10
1706.262162201076
 20
1349.139623733893
 30
0.0
  0
VERTEX
  5
A46
  8
0
 10
1706.262162201076
 20
1390.010991972435
 30
0.0
  0
VERTEX
  5
A47
  8
0
 10
1707.062162201076
 20
1390.010991972435
 30
0.0
  0
VERTEX
  5
A48
  8
0
 10
1707.062162201076
 20
1348.90948247654
 30
0.0
  0
SEQEND
  5
13A7
  8
0
  0
POLYLINE
  5
478
  8
0
 66
     1
 10
0.0
 20
0.0
 30
0.0
  0
VERTEX
  5
A49
  8
0
 10
1712.512162201076
 20
1347.462565750067
 30
0.0
  0
VERTEX
  5
A4A
  8
0
 10
1712.512162201076
 20
1390.010991972435
 30
0.0
  0
VERTEX
  5
A4B
  8
0
 10
1713.312162201076
 20
1390.010991972435
 30
0.0
  0
VERTEX
  5
A4C
  8
0
 10
1713.312162201076
 20
1347.26770645955
 30
0.0
  0
SEQEND
  5
13A8
  8
0
  0
POLYLINE
  5
479
  8
0
 66
     1
 10
0.0
 20
0.0
 30
0.0
  0
VERTEX
  5
A4D
  8
0
 10
1718.762162201076
 20
1346.05745291091
 30
0.0
  0
VERTEX
  5
A4E
  8
0
 10
1718.762162201076
 20
1390.010991972435
 30
0.0
  0
VERTEX
  5
A4F
  8
0
 10
1719.562162201076
 20
1390.010991972435
 30
0.0
  0
VERTEX
  5
A50
  8
0
 10
1719.562162201076
 20
1345.896833486693
 30
0.0
  0
SEQEND
  5
13A9
  8
0
  0
POLYLINE
  5
47A
  8
0
 66
     1
 10
0.0
 20
0.0
 30
0.0
  0
VERTEX
  5
A51
  8
0
 10
1725.012162201076
 20
1344.916888716992
 30
0.0
  0
VERTEX
  5
A52
  8
0
 10
1725.012162201076
 20
1390.010991972435
 30
0.0
  0
VERTEX
  5
A53
  8
0
 10
1725.812162201076
 20
1390.010991972435
 30
0.0
  0
VERTEX
  5
A54
  8
0
 10
1725.812162201076
 20
1344.789680850105
 30
0.0
  0
SEQEND
  5
13AA
  8
0
  0
POLYLINE
  5
47B
  8
0
 66
     1
 10
0.0
 20
0.0
 30
0.0
  0
VERTEX
  5
A55
  8
0
 10
1731.262162201076
 20
1344.035065621084
 30
0.0
  0
VERTEX
  5
A56
  8
0
 10
1731.262162201076
 20
1390.010991972435
 30
0.0
  0
VERTEX
  5
A57
  8
0
 10
1732.062162201076
 20
1390.010991972435
 30
0.0
  0
VERTEX
  5
A58
  8
0
 10
1732.062162201076
 20
1343.940632185276
 30
0.0
  0
SEQEND
  5
13AB
  8
0
  0
POLYLINE
  5
47C
  8
0
 66
     1
 10
0.0
 20
0.0
 30
0.0
  0
VERTEX
  5
A59
  8
0
 10
1737.512162201076
 20
1343.407609735868
 30
0.0
  0
VERTEX
  5
A5A
  8
0
 10
1737.512162201076
 20
1390.010991972435
 30
0.0
  0
VERTEX
  5
A5B
  8
0
 10
1738.312162201076
 20
1390.010991972435
 30
0.0
  0
VERTEX
  5
A5C
  8
0
 10
1738.312162201076
 20
1343.345488207002
 30
0.0
  0
SEQEND
  5
13AC
  8
0
  0
POLYLINE
  5
47D
  8
0
 66
     1
 10
0.0
 20
0.0
 30
0.0
  0
VERTEX
  5
A5D
  8
0
 10
1743.762162201076
 20
1343.031468807771
 30
0.0
  0
VERTEX
  5
A5E
  8
0
 10
1743.762162201076
 20
1368.195948702662
 30
0.0
  0
SEQEND
  5
13AD
  8
0
  0
POLYLINE
  5
481
  8
0
 66
     1
 10
0.0
 20
0.0
 30
0.0
  0
VERTEX
  5
A5F
  8
0
 10
1593.762162201076
 20
1485.145608556416
 30
0.0
  0
VERTEX
  5
A60
  8
0
 10
1593.762162201076
 20
1495.054012017345
 30
0.0
  0
SEQEND
  5
13AE
  8
0
  0
POLYLINE
  5
482
  8
0
 66
     1
 10
0.0
 20
0.0
 30
0.0
  0
VERTEX
  5
A61
  8
0
 10
1600.012162201076
 20
1453.724950117105
 30
0.0
  0
VERTEX
  5
A62
  8
0
 10
1600.012162201076
 20
1495.054012017345
 30
0.0
  0
SEQEND
  5
13AF
  8
0
  0
POLYLINE
  5
483
  8
0
 66
     1
 10
0.0
 20
0.0
 30
0.0
  0
VERTEX
  5
A63
  8
0
 10
1607.062162201076
 20
1495.054012017345
 30
0.0
  0
VERTEX
  5
A64
  8
0
 10
1607.062162201076
 20
1450.010991972435
 30
0.0
  0
VERTEX
  5
A65
  8
0
 10
1606.262162201076
 20
1450.010991972435
 30
0.0
  0
VERTEX
  5
A66
  8
0
 10
1606.262162201076
 20
1495.054012017345
 30
0.0
  0
SEQEND
  5
13B0
  8
0
  0
POLYLINE
  5
484
  8
0
 66
     1
 10
0.0
 20
0.0
 30
0.0
  0
VERTEX
  5
A67
  8
0
 10
1613.312162201076
 20
1495.054012017345
 30
0.0
  0
VERTEX
  5
A68
  8
0
 10
1613.312162201076
 20
1450.010991972435
 30
0.0
  0
VERTEX
  5
A69
  8
0
 10
1612.512162201076
 20
1450.010991972435
 30
0.0
  0
VERTEX
  5
A6A
  8
0
 10
1612.512162201076
 20
1495.054012017345
 30
0.0
  0
SEQEND
  5
13B1
  8
0
  0
POLYLINE
  5
485
  8
0
 66
     1
 10
0.0
 20
0.0
 30
0.0
  0
VERTEX
  5
A6B
  8
0
 10
1619.562162201076
 20
1494.198129565849
 30
0.0
  0
VERTEX
  5
A6C
  8
0
 10
1619.562162201076
 20
1450.010991972435
 30
0.0
  0
VERTEX
  5
A6D
  8
0
 10
1618.762162201076
 20
1450.010991972435
 30
0.0
  0
VERTEX
  5
A6E
  8
0
 10
1618.762162201076
 20
1494.316283500692
 30
0.0
  0
SEQEND
  5
13B2
  8
0
  0
POLYLINE
  5
486
  8
0
 66
     1
 10
0.0
 20
0.0
 30
0.0
  0
VERTEX
  5
A6F
  8
0
 10
1625.812162201076
 20
1495.054012017345
 30
0.0
  0
VERTEX
  5
A70
  8
0
 10
1625.812162201076
 20
1450.010991972435
 30
0.0
  0
VERTEX
  5
A71
  8
0
 10
1625.012162201076
 20
1450.010991972435
 30
0.0
  0
VERTEX
  5
A72
  8
0
 10
1625.012162201076
 20
1495.054012017345
 30
0.0
  0
SEQEND
  5
13B3
  8
0
  0
POLYLINE
  5
487
  8
0
 66
     1
 10
0.0
 20
0.0
 30
0.0
  0
VERTEX
  5
A73
  8
0
 10
1632.062162201076
 20
1495.054012017345
 30
0.0
  0
VERTEX
  5
A74
  8
0
 10
1632.062162201076
 20
1450.010991972435
 30
0.0
  0
VERTEX
  5
A75
  8
0
 10
1631.262162201076
 20
1450.010991972435
 30
0.0
  0
VERTEX
  5
A76
  8
0
 10
1631.262162201076
 20
1495.054012017345
 30
0.0
  0
SEQEND
  5
13B4
  8
0
  0
POLYLINE
  5
488
  8
0
 66
     1
 10
0.0
 20
0.0
 30
0.0
  0
VERTEX
  5
A77
  8
0
 10
1638.312162201076
 20
1495.054012017345
 30
0.0
  0
VERTEX
  5
A78
  8
0
 10
1638.312162201076
 20
1450.010991972435
 30
0.0
  0
VERTEX
  5
A79
  8
0
 10
1637.512162201076
 20
1450.010991972435
 30
0.0
  0
VERTEX
  5
A7A
  8
0
 10
1637.512162201076
 20
1495.054012017345
 30
0.0
  0
SEQEND
  5
13B5
  8
0
  0
POLYLINE
  5
489
  8
0
 66
     1
 10
0.0
 20
0.0
 30
0.0
  0
VERTEX
  5
A7B
  8
0
 10
1644.562162201076
 20
1495.054012017345
 30
0.0
  0
VERTEX
  5
A7C
  8
0
 10
1644.562162201076
 20
1450.010991972435
 30
0.0
  0
VERTEX
  5
A7D
  8
0
 10
1643.762162201076
 20
1450.010991972435
 30
0.0
  0
VERTEX
  5
A7E
  8
0
 10
1643.762162201076
 20
1495.054012017345
 30
0.0
  0
SEQEND
  5
13B6
  8
0
  0
POLYLINE
  5
48A
  8
0
 66
     1
 10
0.0
 20
0.0
 30
0.0
  0
VERTEX
  5
A7F
  8
0
 10
1643.762162201076
 20
1384.369955536043
 30
0.0
  0
VERTEX
  5
A80
  8
0
 10
1643.762162201076
 20
1390.010991972435
 30
0.0
  0
VERTEX
  5
A81
  8
0
 10
1644.562162201076
 20
1390.010991972435
 30
0.0
  0
VERTEX
  5
A82
  8
0
 10
1644.562162201076
 20
1383.638950337527
 30
0.0
  0
SEQEND
  5
13B7
  8
0
  0
POLYLINE
  5
48E
  8
0
 66
     1
 10
0.0
 20
0.0
 30
0.0
  0
VERTEX
  5
A83
  8
0
 10
1662.512162201076
 20
1369.585331060981
 30
0.0
  0
VERTEX
  5
A84
  8
0
 10
1662.512162201076
 20
1390.010991972435
 30
0.0
  0
VERTEX
  5
A85
  8
0
 10
1663.312162201076
 20
1390.010991972435
 30
0.0
  0
VERTEX
  5
A86
  8
0
 10
1663.312162201076
 20
1369.051402995523
 30
0.0
  0
SEQEND
  5
13B8
  8
0
  0
POLYLINE
  5
48F
  8
0
 66
     1
 10
0.0
 20
0.0
 30
0.0
  0
VERTEX
  5
A87
  8
0
 10
1668.762162201076
 20
1365.59718566497
 30
0.0
  0
VERTEX
  5
A88
  8
0
 10
1668.762162201076
 20
1390.010991972435
 30
0.0
  0
VERTEX
  5
A89
  8
0
 10
1669.562162201076
 20
1390.010991972435
 30
0.0
  0
VERTEX
  5
A8A
  8
0
 10
1669.562162201076
 20
1365.116140260818
 30
0.0
  0
SEQEND
  5
13B9
  8
0
  0
POLYLINE
  5
490
  8
0
 66
     1
 10
0.0
 20
0.0
 30
0.0
  0
VERTEX
  5
A8B
  8
0
 10
1675.012162201076
 20
1362.007078576944
 30
0.0
  0
VERTEX
  5
A8C
  8
0
 10
1675.012162201076
 20
1390.010991972435
 30
0.0
  0
VERTEX
  5
A8D
  8
0
 10
1675.812162201076
 20
1390.010991972435
 30
0.0
  0
VERTEX
  5
A8E
  8
0
 10
1675.812162201076
 20
1361.574654687371
 30
0.0
  0
SEQEND
  5
13BA
  8
0
  0
POLYLINE
  5
491
  8
0
 66
     1
 10
0.0
 20
0.0
 30
0.0
  0
VERTEX
  5
A8F
  8
0
 10
1681.262162201076
 20
1358.78462816472
 30
0.0
  0
VERTEX
  5
A90
  8
0
 10
1681.262162201076
 20
1390.010991972435
 30
0.0
  0
VERTEX
  5
A91
  8
0
 10
1682.062162201076
 20
1390.010991972435
 30
0.0
  0
VERTEX
  5
A92
  8
0
 10
1682.062162201076
 20
1358.397378181216
 30
0.0
  0
SEQEND
  5
13BB
  8
0
  0
POLYLINE
  5
492
  8
0
 66
     1
 10
0.0
 20
0.0
 30
0.0
  0
VERTEX
  5
A93
  8
0
 10
1687.512162201076
 20
1355.905149852929
 30
0.0
  0
VERTEX
  5
A94
  8
0
 10
1687.512162201076
 20
1390.010991972435
 30
0.0
  0
VERTEX
  5
A95
  8
0
 10
1688.312162201076
 20
1390.010991972435
 30
0.0
  0
VERTEX
  5
A96
  8
0
 10
1688.312162201076
 20
1355.560258101993
 30
0.0
  0
SEQEND
  5
13BC
  8
0
  0
POLYLINE
  5
493
  8
0
 66
     1
 10
0.0
 20
0.0
 30
0.0
  0
VERTEX
  5
A97
  8
0
 10
1650.012162201076
 20
1378.917005202068
 30
0.0
  0
VERTEX
  5
A98
  8
0
 10
1650.012162201076
 20
1390.010991972435
 30
0.0
  0
VERTEX
  5
A99
  8
0
 10
1650.812162201076
 20
1390.010991972435
 30
0.0
  0
VERTEX
  5
A9A
  8
0
 10
1650.812162201076
 20
1378.259849399991
 30
0.0
  0
SEQEND
  5
13BD
  8
0
  0
POLYLINE
  5
494
  8
0
 66
     1
 10
0.0
 20
0.0
 30
0.0
  0
VERTEX
  5
A9B
  8
0
 10
1656.262418025994
 20
1374.00914590762
 30
0.0
  0
VERTEX
  5
A9C
  8
0
 10
1656.262162201076
 20
1390.010991972435
 30
0.0
  0
VERTEX
  5
A9D
  8
0
 10
1657.062162201076
 20
1390.010991972435
 30
0.0
  0
VERTEX
  5
A9E
  8
0
 10
1657.062162201076
 20
1373.417190946088
 30
0.0
  0
SEQEND
  5
13BE
  8
0
  0
POLYLINE
  5
495
  8
0
 66
     1
 10
0.0
 20
0.0
 30
0.0
  0
VERTEX
  5
A9F
  8
0
 10
1662.512162201076
 20
1369.585331060981
 30
0.0
  0
VERTEX
  5
AA0
  8
0
 10
1662.512162201076
 20
1390.010991972435
 30
0.0
  0
VERTEX
  5
AA1
  8
0
 10
1663.312162201076
 20
1390.010991972435
 30
0.0
  0
VERTEX
  5
AA2
  8
0
 10
1663.312162201076
 20
1369.051402995523
 30
0.0
  0
SEQEND
  5
13BF
  8
0
  0
POLYLINE
  5
496
  8
0
 66
     1
 10
0.0
 20
0.0
 30
0.0
  0
VERTEX
  5
AA3
  8
0
 10
1668.762162201076
 20
1365.59718566497
 30
0.0
  0
VERTEX
  5
AA4
  8
0
 10
1668.762162201076
 20
1390.010991972435
 30
0.0
  0
VERTEX
  5
AA5
  8
0
 10
1669.562162201076
 20
1390.010991972435
 30
0.0
  0
VERTEX
  5
AA6
  8
0
 10
1669.562162201076
 20
1365.116140260818
 30
0.0
  0
SEQEND
  5
13C0
  8
0
  0
POLYLINE
  5
497
  8
0
 66
     1
 10
0.0
 20
0.0
 30
0.0
  0
VERTEX
  5
AA7
  8
0
 10
1675.012162201076
 20
1362.007078576944
 30
0.0
  0
VERTEX
  5
AA8
  8
0
 10
1675.012162201076
 20
1390.010991972435
 30
0.0
  0
VERTEX
  5
AA9
  8
0
 10
1675.812162201076
 20
1390.010991972435
 30
0.0
  0
VERTEX
  5
AAA
  8
0
 10
1675.812162201076
 20
1361.574654687371
 30
0.0
  0
SEQEND
  5
13C1
  8
0
  0
POLYLINE
  5
498
  8
0
 66
     1
 10
0.0
 20
0.0
 30
0.0
  0
VERTEX
  5
AAB
  8
0
 10
1681.262162201076
 20
1358.78462816472
 30
0.0
  0
VERTEX
  5
AAC
  8
0
 10
1681.262162201076
 20
1390.010991972435
 30
0.0
  0
VERTEX
  5
AAD
  8
0
 10
1682.062162201076
 20
1390.010991972435
 30
0.0
  0
VERTEX
  5
AAE
  8
0
 10
1682.062162201076
 20
1358.397378181216
 30
0.0
  0
SEQEND
  5
13C2
  8
0
  0
POLYLINE
  5
499
  8
0
 66
     1
 10
0.0
 20
0.0
 30
0.0
  0
VERTEX
  5
AAF
  8
0
 10
1687.512162201076
 20
1355.905149852929
 30
0.0
  0
VERTEX
  5
AB0
  8
0
 10
1687.512162201076
 20
1390.010991972435
 30
0.0
  0
VERTEX
  5
AB1
  8
0
 10
1688.312162201076
 20
1390.010991972435
 30
0.0
  0
VERTEX
  5
AB2
  8
0
 10
1688.312162201076
 20
1355.560258101993
 30
0.0
  0
SEQEND
  5
13C3
  8
0
  0
POLYLINE
  5
49A
  8
0
 66
     1
 10
0.0
 20
0.0
 30
0.0
  0
VERTEX
  5
AB3
  8
0
 10
1693.762162201076
 20
1353.348426533815
 30
0.0
  0
VERTEX
  5
AB4
  8
0
 10
1693.762162201076
 20
1390.010991972435
 30
0.0
  0
VERTEX
  5
AB5
  8
0
 10
1694.562162201076
 20
1390.010991972435
 30
0.0
  0
VERTEX
  5
AB6
  8
0
 10
1694.562162201076
 20
1353.04357932215
 30
0.0
  0
SEQEND
  5
13C4
  8
0
  0
ARC
  5
49B
  8
0
 10
1750.066882127563
 20
1499.904826987701
 30
0.0
 40
157.0
 50
267.6985286484147
 51
267.9906886842539
  0
POLYLINE
  5
49E
  8
0
 66
     1
 10
0.0
 20
0.0
 30
0.0
  0
VERTEX
  5
AB7
  8
0
 10
1606.262162201076
 20
1436.903219652137
 30
0.0
  0
VERTEX
  5
AB8
  8
0
 10
1606.262162201076
 20
1440.010991972435
 30
0.0
  0
VERTEX
  5
AB9
  8
0
 10
1607.062162201076
 20
1440.010991972435
 30
0.0
  0
VERTEX
  5
ABA
  8
0
 10
1607.062162201076
 20
1435.107835709194
 30
0.0
  0
SEQEND
  5
13C5
  8
0
  0
POLYLINE
  5
49F
  8
0
 66
     1
 10
0.0
 20
0.0
 30
0.0
  0
VERTEX
  5
ABB
  8
0
 10
1612.512162201076
 20
1424.223263671754
 30
0.0
  0
VERTEX
  5
ABC
  8
0
 10
1612.512162201076
 20
1440.010991972435
 30
0.0
  0
VERTEX
  5
ABD
  8
0
 10
1613.312162201076
 20
1440.010991972435
 30
0.0
  0
VERTEX
  5
ABE
  8
0
 10
1613.312162201076
 20
1422.787082091808
 30
0.0
  0
SEQEND
  5
13C6
  8
0
  0
POLYLINE
  5
4EB
  8
0
 66
     1
 10
0.0
 20
0.0
 30
0.0
 70
     1
  0
VERTEX
  5
ABF
  8
0
 10
1703.233329913214
 20
1465.585164749832
 30
0.0
  0
VERTEX
  5
AC0
  8
0
 10
1704.033329913214
 20
1465.585164749832
 30
0.0
  0
VERTEX
  5
AC1
  8
0
 10
1704.033329913214
 20
1425.585164749832
 30
0.0
  0
VERTEX
  5
AC2
  8
0
 10
1703.233329913214
 20
1425.585164749832
 30
0.0
  0
SEQEND
  5
13C7
  8
0
  0
POLYLINE
  5
4EC
  8
0
 66
     1
 10
0.0
 20
0.0
 30
0.0
 70
     1
  0
VERTEX
  5
AC3
  8
0
 10
1709.483329913214
 20
1465.585164749832
 30
0.0
  0
VERTEX
  5
AC4
  8
0
 10
1710.283329913214
 20
1465.585164749832
 30
0.0
  0
VERTEX
  5
AC5
  8
0
 10
1710.283329913214
 20
1425.585164749832
 30
0.0
  0
VERTEX
  5
AC6
  8
0
 10
1709.483329913214
 20
1425.585164749832
 30
0.0
  0
SEQEND
  5
13C8
  8
0
  0
POLYLINE
  5
4ED
  8
0
 66
     1
 10
0.0
 20
0.0
 30
0.0
 70
     1
  0
VERTEX
  5
AC7
  8
0
 10
1715.733329913214
 20
1465.585164749832
 30
0.0
  0
VERTEX
  5
AC8
  8
0
 10
1716.533329913214
 20
1465.585164749832
 30
0.0
  0
VERTEX
  5
AC9
  8
0
 10
1716.533329913214
 20
1425.585164749832
 30
0.0
  0
VERTEX
  5
ACA
  8
0
 10
1715.733329913214
 20
1425.585164749832
 30
0.0
  0
SEQEND
  5
13C9
  8
0
  0
POLYLINE
  5
4EE
  8
0
 66
     1
 10
0.0
 20
0.0
 30
0.0
 70
     1
  0
VERTEX
  5
ACB
  8
0
 10
1721.983329913214
 20
1465.585164749832
 30
0.0
  0
VERTEX
  5
ACC
  8
0
 10
1722.783329913214
 20
1465.585164749832
 30
0.0
  0
VERTEX
  5
ACD
  8
0
 10
1722.783329913214
 20
1425.585164749832
 30
0.0
  0
VERTEX
  5
ACE
  8
0
 10
1721.983329913214
 20
1425.585164749832
 30
0.0
  0
SEQEND
  5
13CA
  8
0
  0
POLYLINE
  5
4EF
  8
0
 66
     1
 10
0.0
 20
0.0
 30
0.0
 70
     1
  0
VERTEX
  5
ACF
  8
0
 10
1728.233329913214
 20
1465.585164749832
 30
0.0
  0
VERTEX
  5
AD0
  8
0
 10
1729.033329913214
 20
1465.585164749832
 30
0.0
  0
VERTEX
  5
AD1
  8
0
 10
1729.033329913214
 20
1425.585164749832
 30
0.0
  0
VERTEX
  5
AD2
  8
0
 10
1728.233329913214
 20
1425.585164749832
 30
0.0
  0
SEQEND
  5
13CB
  8
0
  0
POLYLINE
  5
4F0
  8
0
 66
     1
 10
0.0
 20
0.0
 30
0.0
 70
     1
  0
VERTEX
  5
AD3
  8
0
 10
1734.483329913214
 20
1465.585164749832
 30
0.0
  0
VERTEX
  5
AD4
  8
0
 10
1735.283329913214
 20
1465.585164749832
 30
0.0
  0
VERTEX
  5
AD5
  8
0
 10
1735.283329913214
 20
1425.585164749832
 30
0.0
  0
VERTEX
  5
AD6
  8
0
 10
1734.483329913214
 20
1425.585164749832
 30
0.0
  0
SEQEND
  5
13CC
  8
0
  0
POLYLINE
  5
4F1
  8
0
 66
     1
 10
0.0
 20
0.0
 30
0.0
 70
     1
  0
VERTEX
  5
AD7
  8
0
 10
1740.733329913214
 20
1465.585164749832
 30
0.0
  0
VERTEX
  5
AD8
  8
0
 10
1741.533329913214
 20
1465.585164749832
 30
0.0
  0
VERTEX
  5
AD9
  8
0
 10
1741.533329913214
 20
1425.585164749832
 30
0.0
  0
VERTEX
  5
ADA
  8
0
 10
1740.733329913214
 20
1425.585164749832
 30
0.0
  0
SEQEND
  5
13CD
  8
0
  0
POLYLINE
  5
4F4
  8
0
 66
     1
 10
0.0
 20
0.0
 30
0.0
 70
     1
  0
VERTEX
  5
ADB
  8
0
 10
1703.159427767903
 20
1412.642166297979
 30
0.0
  0
VERTEX
  5
ADC
  8
0
 10
1703.959427767903
 20
1412.642166297979
 30
0.0
  0
VERTEX
  5
ADD
  8
0
 10
1703.959427767903
 20
1372.642166297979
 30
0.0
  0
VERTEX
  5
ADE
  8
0
 10
1703.159427767903
 20
1372.642166297979
 30
0.0
  0
SEQEND
  5
13CE
  8
0
  0
POLYLINE
  5
4F5
  8
0
 66
     1
 10
0.0
 20
0.0
 30
0.0
 70
     1
  0
VERTEX
  5
ADF
  8
0
 10
1709.409427767903
 20
1412.642166297979
 30
0.0
  0
VERTEX
  5
AE0
  8
0
 10
1710.209427767903
 20
1412.642166297979
 30
0.0
  0
VERTEX
  5
AE1
  8
0
 10
1710.209427767903
 20
1372.642166297979
 30
0.0
  0
VERTEX
  5
AE2
  8
0
 10
1709.409427767903
 20
1372.642166297979
 30
0.0
  0
SEQEND
  5
13CF
  8
0
  0
POLYLINE
  5
4F6
  8
0
 66
     1
 10
0.0
 20
0.0
 30
0.0
 70
     1
  0
VERTEX
  5
AE3
  8
0
 10
1715.659427767903
 20
1412.642166297979
 30
0.0
  0
VERTEX
  5
AE4
  8
0
 10
1716.459427767903
 20
1412.642166297979
 30
0.0
  0
VERTEX
  5
AE5
  8
0
 10
1716.459427767903
 20
1372.642166297979
 30
0.0
  0
VERTEX
  5
AE6
  8
0
 10
1715.659427767903
 20
1372.642166297979
 30
0.0
  0
SEQEND
  5
13D0
  8
0
  0
POLYLINE
  5
4F7
  8
0
 66
     1
 10
0.0
 20
0.0
 30
0.0
 70
     1
  0
VERTEX
  5
AE7
  8
0
 10
1721.909427767903
 20
1412.642166297979
 30
0.0
  0
VERTEX
  5
AE8
  8
0
 10
1722.709427767903
 20
1412.642166297979
 30
0.0
  0
VERTEX
  5
AE9
  8
0
 10
1722.709427767903
 20
1372.642166297979
 30
0.0
  0
VERTEX
  5
AEA
  8
0
 10
1721.909427767903
 20
1372.642166297979
 30
0.0
  0
SEQEND
  5
13D1
  8
0
  0
POLYLINE
  5
4F8
  8
0
 66
     1
 10
0.0
 20
0.0
 30
0.0
 70
     1
  0
VERTEX
  5
AEB
  8
0
 10
1728.159427767903
 20
1412.642166297979
 30
0.0
  0
VERTEX
  5
AEC
  8
0
 10
1728.959427767903
 20
1412.642166297979
 30
0.0
  0
VERTEX
  5
AED
  8
0
 10
1728.959427767903
 20
1372.642166297979
 30
0.0
  0
VERTEX
  5
AEE
  8
0
 10
1728.159427767903
 20
1372.642166297979
 30
0.0
  0
SEQEND
  5
13D2
  8
0
  0
POLYLINE
  5
4F9
  8
0
 66
     1
 10
0.0
 20
0.0
 30
0.0
 70
     1
  0
VERTEX
  5
AEF
  8
0
 10
1734.409427767903
 20
1412.642166297979
 30
0.0
  0
VERTEX
  5
AF0
  8
0
 10
1735.209427767903
 20
1412.642166297979
 30
0.0
  0
VERTEX
  5
AF1
  8
0
 10
1735.209427767903
 20
1372.642166297979
 30
0.0
  0
VERTEX
  5
AF2
  8
0
 10
1734.409427767903
 20
1372.642166297979
 30
0.0
  0
SEQEND
  5
13D3
  8
0
  0
POLYLINE
  5
4FA
  8
0
 66
     1
 10
0.0
 20
0.0
 30
0.0
 70
     1
  0
VERTEX
  5
AF3
  8
0
 10
1740.659427767903
 20
1412.642166297979
 30
0.0
  0
VERTEX
  5
AF4
  8
0
 10
1741.459427767903
 20
1412.642166297979
 30
0.0
  0
VERTEX
  5
AF5
  8
0
 10
1741.459427767903
 20
1372.642166297979
 30
0.0
  0
VERTEX
  5
AF6
  8
0
 10
1740.659427767903
 20
1372.642166297979
 30
0.0
  0
SEQEND
  5
13D4
  8
0
  0
POLYLINE
  5
4FF
  8
0
 66
     1
 10
0.0
 20
0.0
 30
0.0
  0
VERTEX
  5
AF7
  8
0
 10
1603.194648618616
 20
1444.429183466481
 30
0.0
  0
VERTEX
  5
AF8
  8
0
 10
1603.194648618616
 20
1465.585164749832
 30
0.0
  0
VERTEX
  5
AF9
  8
0
 10
1603.994648618616
 20
1465.585164749832
 30
0.0
  0
VERTEX
  5
AFA
  8
0
 10
1603.994648618616
 20
1442.355694955082
 30
0.0
  0
SEQEND
  5
13D5
  8
0
  0
POLYLINE
  5
500
  8
0
 66
     1
 10
0.0
 20
0.0
 30
0.0
  0
VERTEX
  5
AFB
  8
0
 10
1609.444648618616
 20
1430.088013518772
 30
0.0
  0
VERTEX
  5
AFC
  8
0
 10
1609.444648618616
 20
1465.585164749832
 30
0.0
  0
VERTEX
  5
AFD
  8
0
 10
1610.244648618616
 20
1465.585164749832
 30
0.0
  0
VERTEX
  5
AFE
  8
0
 10
1610.244648618616
 20
1428.499343888925
 30
0.0
  0
SEQEND
  5
13D6
  8
0
  0
POLYLINE
  5
501
  8
0
 66
     1
 10
0.0
 20
0.0
 30
0.0
  0
VERTEX
  5
AFF
  8
0
 10
1615.694648618616
 20
1418.706902988271
 30
0.0
  0
VERTEX
  5
B00
  8
0
 10
1615.694648618616
 20
1465.585164749832
 30
0.0
  0
VERTEX
  5
B01
  8
0
 10
1616.494648618616
 20
1465.585164749832
 30
0.0
  0
VERTEX
  5
B02
  8
0
 10
1616.494648618616
 20
1417.397503461656
 30
0.0
  0
SEQEND
  5
13D7
  8
0
  0
POLYLINE
  5
502
  8
0
 66
     1
 10
0.0
 20
0.0
 30
0.0
 70
     1
  0
VERTEX
  5
B03
  8
0
 10
1621.944648618616
 20
1465.585164749832
 30
0.0
  0
VERTEX
  5
B04
  8
0
 10
1622.744648618616
 20
1465.585164749832
 30
0.0
  0
VERTEX
  5
B05
  8
0
 10
1622.744648618616
 20
1425.585164749832
 30
0.0
  0
VERTEX
  5
B06
  8
0
 10
1621.944648618616
 20
1425.585164749832
 30
0.0
  0
SEQEND
  5
13D8
  8
0
  0
POLYLINE
  5
503
  8
0
 66
     1
 10
0.0
 20
0.0
 30
0.0
 70
     1
  0
VERTEX
  5
B07
  8
0
 10
1628.194648618616
 20
1465.585164749832
 30
0.0
  0
VERTEX
  5
B08
  8
0
 10
1628.994648618616
 20
1465.585164749832
 30
0.0
  0
VERTEX
  5
B09
  8
0
 10
1628.994648618616
 20
1425.585164749832
 30
0.0
  0
VERTEX
  5
B0A
  8
0
 10
1628.194648618616
 20
1425.585164749832
 30
0.0
  0
SEQEND
  5
13D9
  8
0
  0
POLYLINE
  5
504
  8
0
 66
     1
 10
0.0
 20
0.0
 30
0.0
 70
     1
  0
VERTEX
  5
B0B
  8
0
 10
1634.444648618616
 20
1465.585164749832
 30
0.0
  0
VERTEX
  5
B0C
  8
0
 10
1635.244648618616
 20
1465.585164749832
 30
0.0
  0
VERTEX
  5
B0D
  8
0
 10
1635.244648618616
 20
1425.585164749832
 30
0.0
  0
VERTEX
  5
B0E
  8
0
 10
1634.444648618616
 20
1425.585164749832
 30
0.0
  0
SEQEND
  5
13DA
  8
0
  0
POLYLINE
  5
505
  8
0
 66
     1
 10
0.0
 20
0.0
 30
0.0
 70
     1
  0
VERTEX
  5
B0F
  8
0
 10
1640.694648618616
 20
1465.585164749832
 30
0.0
  0
VERTEX
  5
B10
  8
0
 10
1641.494648618616
 20
1465.585164749832
 30
0.0
  0
VERTEX
  5
B11
  8
0
 10
1641.494648618616
 20
1425.585164749832
 30
0.0
  0
VERTEX
  5
B12
  8
0
 10
1640.694648618616
 20
1425.585164749832
 30
0.0
  0
SEQEND
  5
13DB
  8
0
  0
POLYLINE
  5
50B
  8
0
 66
     1
 10
0.0
 20
0.0
 30
0.0
  0
VERTEX
  5
B13
  8
0
 10
1621.978720096107
 20
1409.117037349428
 30
0.0
  0
VERTEX
  5
B14
  8
0
 10
1621.978720096107
 20
1412.794065794013
 30
0.0
  0
VERTEX
  5
B15
  8
0
 10
1622.778720096107
 20
1412.794065794013
 30
0.0
  0
VERTEX
  5
B16
  8
0
 10
1622.778720096107
 20
1407.998767303621
 30
0.0
  0
SEQEND
  5
13DC
  8
0
  0
POLYLINE
  5
50C
  8
0
 66
     1
 10
0.0
 20
0.0
 30
0.0
  0
VERTEX
  5
B17
  8
0
 10
1628.228720096107
 20
1400.887342305466
 30
0.0
  0
VERTEX
  5
B18
  8
0
 10
1628.228720096107
 20
1412.794065794013
 30
0.0
  0
VERTEX
  5
B19
  8
0
 10
1629.028720096107
 20
1412.794065794013
 30
0.0
  0
VERTEX
  5
B1A
  8
0
 10
1629.028720096107
 20
1399.911010518647
 30
0.0
  0
SEQEND
  5
13DD
  8
0
  0
POLYLINE
  5
50D
  8
0
 66
     1
 10
0.0
 20
0.0
 30
0.0
  0
VERTEX
  5
B1B
  8
0
 10
1634.478720096107
 20
1393.65805386875
 30
0.0
  0
VERTEX
  5
B1C
  8
0
 10
1634.478720096107
 20
1412.794065794013
 30
0.0
  0
VERTEX
  5
B1D
  8
0
 10
1635.278720096107
 20
1412.794065794013
 30
0.0
  0
VERTEX
  5
B1E
  8
0
 10
1635.278720096107
 20
1392.794239941228
 30
0.0
  0
SEQEND
  5
13DE
  8
0
  0
POLYLINE
  5
50F
  8
0
 66
     1
 10
0.0
 20
0.0
 30
0.0
  0
VERTEX
  5
B1F
  8
0
 10
1684.14061183025
 20
1357.417189332059
 30
0.0
  0
VERTEX
  5
B20
  8
0
 10
1684.14061183025
 20
1362.696325557627
 30
0.0
  0
VERTEX
  5
B21
  8
0
 10
1684.94061183025
 20
1362.696325557627
 30
0.0
  0
VERTEX
  5
B22
  8
0
 10
1684.94061183025
 20
1357.049764364211
 30
0.0
  0
SEQEND
  5
13DF
  8
0
  0
POLYLINE
  5
510
  8
0
 66
     1
 10
0.0
 20
0.0
 30
0.0
  0
VERTEX
  5
B23
  8
0
 10
1690.39061183025
 20
1354.68863380181
 30
0.0
  0
VERTEX
  5
B24
  8
0
 10
1690.39061183025
 20
1362.696325557627
 30
0.0
  0
VERTEX
  5
B25
  8
0
 10
1691.19061183025
 20
1362.696325557627
 30
0.0
  0
VERTEX
  5
B26
  8
0
 10
1691.19061183025
 20
1354.362445545464
 30
0.0
  0
SEQEND
  5
13E0
  8
0
  0
POLYLINE
  5
511
  8
0
 66
     1
 10
0.0
 20
0.0
 30
0.0
  0
VERTEX
  5
B27
  8
0
 10
1696.64061183025
 20
1352.274770284743
 30
0.0
  0
VERTEX
  5
B28
  8
0
 10
1696.64061183025
 20
1362.696325557627
 30
0.0
  0
VERTEX
  5
B29
  8
0
 10
1697.44061183025
 20
1362.696325557627
 30
0.0
  0
VERTEX
  5
B2A
  8
0
 10
1697.44061183025
 20
1351.987702642363
 30
0.0
  0
SEQEND
  5
13E1
  8
0
  0
POLYLINE
  5
512
  8
0
 66
     1
 10
0.0
 20
0.0
 30
0.0
  0
VERTEX
  5
B2B
  8
0
 10
1703.159427767903
 20
1350.075955519294
 30
0.0
  0
VERTEX
  5
B2C
  8
0
 10
1703.159427767903
 20
1362.642166297979
 30
0.0
  0
VERTEX
  5
B2D
  8
0
 10
1703.959427767903
 20
1362.642166297979
 30
0.0
  0
VERTEX
  5
B2E
  8
0
 10
1703.959427767903
 20
1349.827837903858
 30
0.0
  0
SEQEND
  5
13E2
  8
0
  0
POLYLINE
  5
513
  8
0
 66
     1
 10
0.0
 20
0.0
 30
0.0
  0
VERTEX
  5
B2F
  8
0
 10
1709.409427767903
 20
1348.26060057274
 30
0.0
  0
VERTEX
  5
B30
  8
0
 10
1709.409427767903
 20
1362.642166297979
 30
0.0
  0
VERTEX
  5
B31
  8
0
 10
1710.209427767903
 20
1362.642166297979
 30
0.0
  0
VERTEX
  5
B32
  8
0
 10
1710.209427767903
 20
1348.048370648276
 30
0.0
  0
SEQEND
  5
13E3
  8
0
  0
POLYLINE
  5
514
  8
0
 66
     1
 10
0.0
 20
0.0
 30
0.0
  0
VERTEX
  5
B33
  8
0
 10
1715.659427767903
 20
1346.721514957677
 30
0.0
  0
VERTEX
  5
B34
  8
0
 10
1715.659427767903
 20
1362.642166297979
 30
0.0
  0
VERTEX
  5
B35
  8
0
 10
1716.459427767903
 20
1362.642166297979
 30
0.0
  0
VERTEX
  5
B36
  8
0
 10
1716.459427767903
 20
1346.544013833025
 30
0.0
  0
SEQEND
  5
13E4
  8
0
  0
POLYLINE
  5
515
  8
0
 66
     1
 10
0.0
 20
0.0
 30
0.0
  0
VERTEX
  5
B37
  8
0
 10
1721.909427767903
 20
1345.450439662563
 30
0.0
  0
VERTEX
  5
B38
  8
0
 10
1721.909427767903
 20
1362.642166297979
 30
0.0
  0
VERTEX
  5
B39
  8
0
 10
1722.709427767903
 20
1362.642166297979
 30
0.0
  0
VERTEX
  5
B3A
  8
0
 10
1722.709427767903
 20
1345.306736149039
 30
0.0
  0
SEQEND
  5
13E5
  8
0
  0
POLYLINE
  5
516
  8
0
 66
     1
 10
0.0
 20
0.0
 30
0.0
  0
VERTEX
  5
B3B
  8
0
 10
1728.159427767903
 20
1344.440800783954
 30
0.0
  0
VERTEX
  5
B3C
  8
0
 10
1728.159427767903
 20
1362.642166297979
 30
0.0
  0
VERTEX
  5
B3D
  8
0
 10
1728.959427767903
 20
1362.642166297979
 30
0.0
  0
VERTEX
  5
B3E
  8
0
 10
1728.959427767903
 20
1344.330165263965
 30
0.0
  0
SEQEND
  5
13E6
  8
0
  0
POLYLINE
  5
517
  8
0
 66
     1
 10
0.0
 20
0.0
 30
0.0
  0
VERTEX
  5
B3F
  8
0
 10
1734.409427767903
 20
1343.687529216375
 30
0.0
  0
VERTEX
  5
B40
  8
0
 10
1734.409427767903
 20
1362.642166297979
 30
0.0
  0
VERTEX
  5
B41
  8
0
 10
1735.209427767903
 20
1362.642166297979
 30
0.0
  0
VERTEX
  5
B42
  8
0
 10
1735.209427767903
 20
1343.60941422728
 30
0.0
  0
SEQEND
  5
13E7
  8
0
  0
POLYLINE
  5
518
  8
0
 66
     1
 10
0.0
 20
0.0
 30
0.0
  0
VERTEX
  5
B43
  8
0
 10
1740.659427767903
 20
1343.186928193496
 30
0.0
  0
VERTEX
  5
B44
  8
0
 10
1740.659427767903
 20
1362.642166297979
 30
0.0
  0
VERTEX
  5
B45
  8
0
 10
1741.459427767903
 20
1362.642166297979
 30
0.0
  0
VERTEX
  5
B46
  8
0
 10
1741.459427767903
 20
1343.140954461387
 30
0.0
  0
SEQEND
  5
13E8
  8
0
  0
POLYLINE
  5
549
  8
0
 66
     1
 10
0.0
 20
0.0
 30
0.0
  0
VERTEX
  5
B47
  8
0
 10
1640.728720096107
 20
1387.236436018526
 30
0.0
  0
VERTEX
  5
B48
  8
0
 10
1640.728720096107
 20
1412.794065794013
 30
0.0
  0
VERTEX
  5
B49
  8
0
 10
1641.528720096107
 20
1412.794065794013
 30
0.0
  0
VERTEX
  5
B4A
  8
0
 10
1641.528720096107
 20
1386.46555961157
 30
0.0
  0
SEQEND
  5
13E9
  8
0
  0
POLYLINE
  5
568
  8
0
 66
     1
 10
0.0
 20
0.0
 30
0.0
  0
VERTEX
  5
B4B
  8
0
 10
1603.994648618616
 20
1495.054012017345
 30
0.0
  0
VERTEX
  5
B4C
  8
0
 10
1603.994648618616
 20
1475.585164749832
 30
0.0
  0
VERTEX
  5
B4D
  8
0
 10
1603.194648618616
 20
1475.585164749832
 30
0.0
  0
VERTEX
  5
B4E
  8
0
 10
1603.194648618616
 20
1495.054012017345
 30
0.0
  0
SEQEND
  5
13EA
  8
0
  0
POLYLINE
  5
569
  8
0
 66
     1
 10
0.0
 20
0.0
 30
0.0
  0
VERTEX
  5
B4F
  8
0
 10
1610.244648618616
 20
1495.054012017345
 30
0.0
  0
VERTEX
  5
B50
  8
0
 10
1610.244648618616
 20
1475.585164749832
 30
0.0
  0
VERTEX
  5
B51
  8
0
 10
1609.444648618616
 20
1475.585164749832
 30
0.0
  0
VERTEX
  5
B52
  8
0
 10
1609.444648618616
 20
1495.054012017345
 30
0.0
  0
SEQEND
  5
13EB
  8
0
  0
POLYLINE
  5
56A
  8
0
 66
     1
 10
0.0
 20
0.0
 30
0.0
  0
VERTEX
  5
B53
  8
0
 10
1616.494648618616
 20
1495.054012017345
 30
0.0
  0
VERTEX
  5
B54
  8
0
 10
1616.494648618616
 20
1475.585164749832
 30
0.0
  0
VERTEX
  5
B55
  8
0
 10
1615.694648618616
 20
1475.585164749832
 30
0.0
  0
VERTEX
  5
B56
  8
0
 10
1615.694648618616
 20
1495.054012017345
 30
0.0
  0
SEQEND
  5
13EC
  8
0
  0
POLYLINE
  5
56C
  8
0
 66
     1
 10
0.0
 20
0.0
 30
0.0
  0
VERTEX
  5
B57
  8
0
 10
1628.994648618616
 20
1495.054012017345
 30
0.0
  0
VERTEX
  5
B58
  8
0
 10
1628.994648618616
 20
1475.585164749832
 30
0.0
  0
VERTEX
  5
B59
  8
0
 10
1628.194648618616
 20
1475.585164749832
 30
0.0
  0
VERTEX
  5
B5A
  8
0
 10
1628.194648618616
 20
1495.054012017345
 30
0.0
  0
SEQEND
  5
13ED
  8
0
  0
POLYLINE
  5
56D
  8
0
 66
     1
 10
0.0
 20
0.0
 30
0.0
  0
VERTEX
  5
B5B
  8
0
 10
1635.244648618616
 20
1495.054012017345
 30
0.0
  0
VERTEX
  5
B5C
  8
0
 10
1635.244648618616
 20
1475.585164749832
 30
0.0
  0
VERTEX
  5
B5D
  8
0
 10
1634.444648618616
 20
1475.585164749832
 30
0.0
  0
VERTEX
  5
B5E
  8
0
 10
1634.444648618616
 20
1495.054012017345
 30
0.0
  0
SEQEND
  5
13EE
  8
0
  0
POLYLINE
  5
56E
  8
0
 66
     1
 10
0.0
 20
0.0
 30
0.0
  0
VERTEX
  5
B5F
  8
0
 10
1641.494648618616
 20
1495.054012017345
 30
0.0
  0
VERTEX
  5
B60
  8
0
 10
1641.494648618616
 20
1475.585164749832
 30
0.0
  0
VERTEX
  5
B61
  8
0
 10
1640.694648618616
 20
1475.585164749832
 30
0.0
  0
VERTEX
  5
B62
  8
0
 10
1640.694648618616
 20
1495.054012017345
 30
0.0
  0
SEQEND
  5
13EF
  8
0
  0
POLYLINE
  5
56F
  8
0
 66
     1
 10
0.0
 20
0.0
 30
0.0
  0
VERTEX
  5
B63
  8
0
 10
1647.628996489017
 20
1495.054012017345
 30
0.0
  0
VERTEX
  5
B64
  8
0
 10
1647.628996489017
 20
1475.585164749832
 30
0.0
  0
VERTEX
  5
B65
  8
0
 10
1646.828996489017
 20
1475.585164749832
 30
0.0
  0
VERTEX
  5
B66
  8
0
 10
1646.828996489017
 20
1495.054012017345
 30
0.0
  0
SEQEND
  5
13F0
  8
0
  0
POLYLINE
  5
570
  8
0
 66
     1
 10
0.0
 20
0.0
 30
0.0
  0
VERTEX
  5
B67
  8
0
 10
1653.878996489017
 20
1495.054012017345
 30
0.0
  0
VERTEX
  5
B68
  8
0
 10
1653.878996489017
 20
1475.585164749832
 30
0.0
  0
VERTEX
  5
B69
  8
0
 10
1653.078996489017
 20
1475.585164749832
 30
0.0
  0
VERTEX
  5
B6A
  8
0
 10
1653.078996489017
 20
1495.054012017345
 30
0.0
  0
SEQEND
  5
13F1
  8
0
  0
POLYLINE
  5
571
  8
0
 66
     1
 10
0.0
 20
0.0
 30
0.0
  0
VERTEX
  5
B6B
  8
0
 10
1660.128996489017
 20
1495.054012017345
 30
0.0
  0
VERTEX
  5
B6C
  8
0
 10
1660.128996489017
 20
1475.585164749832
 30
0.0
  0
VERTEX
  5
B6D
  8
0
 10
1659.328996489017
 20
1475.585164749832
 30
0.0
  0
VERTEX
  5
B6E
  8
0
 10
1659.328996489017
 20
1495.054012017345
 30
0.0
  0
SEQEND
  5
13F2
  8
0
  0
POLYLINE
  5
572
  8
0
 66
     1
 10
0.0
 20
0.0
 30
0.0
  0
VERTEX
  5
B6F
  8
0
 10
1666.378996489017
 20
1495.054012017345
 30
0.0
  0
VERTEX
  5
B70
  8
0
 10
1666.378996489017
 20
1475.585164749832
 30
0.0
  0
VERTEX
  5
B71
  8
0
 10
1665.578996489017
 20
1475.585164749832
 30
0.0
  0
VERTEX
  5
B72
  8
0
 10
1665.578996489017
 20
1495.054012017345
 30
0.0
  0
SEQEND
  5
13F3
  8
0
  0
POLYLINE
  5
573
  8
0
 66
     1
 10
0.0
 20
0.0
 30
0.0
  0
VERTEX
  5
B73
  8
0
 10
1672.628996489017
 20
1495.054012017345
 30
0.0
  0
VERTEX
  5
B74
  8
0
 10
1672.628996489017
 20
1475.585164749832
 30
0.0
  0
VERTEX
  5
B75
  8
0
 10
1671.828996489017
 20
1475.585164749832
 30
0.0
  0
VERTEX
  5
B76
  8
0
 10
1671.828996489017
 20
1495.054012017345
 30
0.0
  0
SEQEND
  5
13F4
  8
0
  0
POLYLINE
  5
574
  8
0
 66
     1
 10
0.0
 20
0.0
 30
0.0
  0
VERTEX
  5
B77
  8
0
 10
1678.878996489017
 20
1495.054012017345
 30
0.0
  0
VERTEX
  5
B78
  8
0
 10
1678.878996489017
 20
1475.585164749832
 30
0.0
  0
VERTEX
  5
B79
  8
0
 10
1678.078996489017
 20
1475.585164749832
 30
0.0
  0
VERTEX
  5
B7A
  8
0
 10
1678.078996489017
 20
1495.054012017345
 30
0.0
  0
SEQEND
  5
13F5
  8
0
  0
POLYLINE
  5
575
  8
0
 66
     1
 10
0.0
 20
0.0
 30
0.0
  0
VERTEX
  5
B7B
  8
0
 10
1685.128996489017
 20
1495.054012017345
 30
0.0
  0
VERTEX
  5
B7C
  8
0
 10
1685.128996489017
 20
1475.585164749832
 30
0.0
  0
VERTEX
  5
B7D
  8
0
 10
1684.328996489017
 20
1475.585164749832
 30
0.0
  0
VERTEX
  5
B7E
  8
0
 10
1684.328996489017
 20
1495.054012017345
 30
0.0
  0
SEQEND
  5
13F6
  8
0
  0
POLYLINE
  5
576
  8
0
 66
     1
 10
0.0
 20
0.0
 30
0.0
  0
VERTEX
  5
B7F
  8
0
 10
1691.378996489017
 20
1495.054012017345
 30
0.0
  0
VERTEX
  5
B80
  8
0
 10
1691.378996489017
 20
1475.585164749832
 30
0.0
  0
VERTEX
  5
B81
  8
0
 10
1690.578996489017
 20
1475.585164749832
 30
0.0
  0
VERTEX
  5
B82
  8
0
 10
1690.578996489017
 20
1495.054012017345
 30
0.0
  0
SEQEND
  5
13F7
  8
0
  0
POLYLINE
  5
577
  8
0
 66
     1
 10
0.0
 20
0.0
 30
0.0
  0
VERTEX
  5
B83
  8
0
 10
1697.628996489017
 20
1495.054012017345
 30
0.0
  0
VERTEX
  5
B84
  8
0
 10
1697.628996489017
 20
1475.585164749832
 30
0.0
  0
VERTEX
  5
B85
  8
0
 10
1696.828996489017
 20
1475.585164749832
 30
0.0
  0
VERTEX
  5
B86
  8
0
 10
1696.828996489017
 20
1495.054012017345
 30
0.0
  0
SEQEND
  5
13F8
  8
0
  0
POLYLINE
  5
578
  8
0
 66
     1
 10
0.0
 20
0.0
 30
0.0
  0
VERTEX
  5
B87
  8
0
 10
1704.033329913214
 20
1495.054012017345
 30
0.0
  0
VERTEX
  5
B88
  8
0
 10
1704.033329913214
 20
1475.585164749832
 30
0.0
  0
VERTEX
  5
B89
  8
0
 10
1703.233329913214
 20
1475.585164749832
 30
0.0
  0
VERTEX
  5
B8A
  8
0
 10
1703.233329913214
 20
1495.054012017345
 30
0.0
  0
SEQEND
  5
13F9
  8
0
  0
POLYLINE
  5
579
  8
0
 66
     1
 10
0.0
 20
0.0
 30
0.0
  0
VERTEX
  5
B8B
  8
0
 10
1710.283329913214
 20
1495.054012017345
 30
0.0
  0
VERTEX
  5
B8C
  8
0
 10
1710.283329913214
 20
1475.585164749832
 30
0.0
  0
VERTEX
  5
B8D
  8
0
 10
1709.483329913214
 20
1475.585164749832
 30
0.0
  0
VERTEX
  5
B8E
  8
0
 10
1709.483329913214
 20
1495.054012017345
 30
0.0
  0
SEQEND
  5
13FA
  8
0
  0
POLYLINE
  5
57A
  8
0
 66
     1
 10
0.0
 20
0.0
 30
0.0
  0
VERTEX
  5
B8F
  8
0
 10
1716.533329913214
 20
1495.054012017345
 30
0.0
  0
VERTEX
  5
B90
  8
0
 10
1716.533329913214
 20
1475.585164749832
 30
0.0
  0
VERTEX
  5
B91
  8
0
 10
1715.733329913214
 20
1475.585164749832
 30
0.0
  0
VERTEX
  5
B92
  8
0
 10
1715.733329913214
 20
1495.054012017345
 30
0.0
  0
SEQEND
  5
13FB
  8
0
  0
POLYLINE
  5
57B
  8
0
 66
     1
 10
0.0
 20
0.0
 30
0.0
  0
VERTEX
  5
B93
  8
0
 10
1722.783329913214
 20
1495.054012017345
 30
0.0
  0
VERTEX
  5
B94
  8
0
 10
1722.783329913214
 20
1475.585164749832
 30
0.0
  0
VERTEX
  5
B95
  8
0
 10
1721.983329913214
 20
1475.585164749832
 30
0.0
  0
VERTEX
  5
B96
  8
0
 10
1721.983329913214
 20
1495.054012017345
 30
0.0
  0
SEQEND
  5
13FC
  8
0
  0
POLYLINE
  5
57C
  8
0
 66
     1
 10
0.0
 20
0.0
 30
0.0
  0
VERTEX
  5
B97
  8
0
 10
1729.033329913214
 20
1495.054012017345
 30
0.0
  0
VERTEX
  5
B98
  8
0
 10
1729.033329913214
 20
1475.585164749832
 30
0.0
  0
VERTEX
  5
B99
  8
0
 10
1728.233329913214
 20
1475.585164749832
 30
0.0
  0
VERTEX
  5
B9A
  8
0
 10
1728.233329913214
 20
1495.054012017345
 30
0.0
  0
SEQEND
  5
13FD
  8
0
  0
POLYLINE
  5
57D
  8
0
 66
     1
 10
0.0
 20
0.0
 30
0.0
  0
VERTEX
  5
B9B
  8
0
 10
1735.283329913214
 20
1495.054012017345
 30
0.0
  0
VERTEX
  5
B9C
  8
0
 10
1735.283329913214
 20
1475.585164749832
 30
0.0
  0
VERTEX
  5
B9D
  8
0
 10
1734.483329913214
 20
1475.585164749832
 30
0.0
  0
VERTEX
  5
B9E
  8
0
 10
1734.483329913214
 20
1495.054012017345
 30
0.0
  0
SEQEND
  5
13FE
  8
0
  0
POLYLINE
  5
57E
  8
0
 66
     1
 10
0.0
 20
0.0
 30
0.0
  0
VERTEX
  5
B9F
  8
0
 10
1741.533329913214
 20
1495.054012017345
 30
0.0
  0
VERTEX
  5
BA0
  8
0
 10
1741.533329913214
 20
1475.585164749832
 30
0.0
  0
VERTEX
  5
BA1
  8
0
 10
1740.733329913214
 20
1475.585164749832
 30
0.0
  0
VERTEX
  5
BA2
  8
0
 10
1740.733329913214
 20
1495.054012017345
 30
0.0
  0
SEQEND
  5
13FF
  8
0
  0
POLYLINE
  5
57F
  8
0
 66
     1
 10
0.0
 20
0.0
 30
0.0
  0
VERTEX
  5
BA3
  8
0
 10
1622.744648618616
 20
1494.825109155227
 30
0.0
  0
VERTEX
  5
BA4
  8
0
 10
1622.744648618616
 20
1475.585164749832
 30
0.0
  0
VERTEX
  5
BA5
  8
0
 10
1621.944648618616
 20
1475.585164749832
 30
0.0
  0
VERTEX
  5
BA6
  8
0
 10
1621.944648618616
 20
1494.490725709869
 30
0.0
  0
SEQEND
  5
1400
  8
0
  0
POLYLINE
  5
581
  8
0
 66
     1
 10
0.0
 20
0.0
 30
0.0
  0
VERTEX
  5
BA7
  8
0
 10
1594.562162201076
 20
1495.054012017345
 30
0.0
  0
VERTEX
  5
BA8
  8
0
 10
1594.562162201076
 20
1478.288118621607
 30
0.0
  0
SEQEND
  5
1401
  8
0
  0
POLYLINE
  5
582
  8
0
 66
     1
 10
0.0
 20
0.0
 30
0.0
  0
VERTEX
  5
BA9
  8
0
 10
1600.812162201076
 20
1495.054012017345
 30
0.0
  0
VERTEX
  5
BAA
  8
0
 10
1600.812162201076
 20
1451.201350934489
 30
0.0
  0
SEQEND
  5
1402
  8
0
  0
POLYLINE
  5
583
  8
0
 66
     1
 10
0.0
 20
0.0
 30
0.0
  0
VERTEX
  5
BAB
  8
0
 10
1597.740494315512
 20
1495.054012017345
 30
0.0
  0
VERTEX
  5
BAC
  8
0
 10
1597.740494315512
 20
1461.882838926412
 30
0.0
  0
SEQEND
  5
1403
  8
0
  0
LINE
  5
584
  8
0
 10
1743.762162201076
 20
1495.054012017345
 30
0.0
 11
1744.562162201076
 21
1495.054012017345
 31
0.0
  0
LINE
  5
585
  8
0
 10
1740.733329913214
 20
1495.054012017345
 30
0.0
 11
1741.533329913214
 21
1495.054012017345
 31
0.0
  0
LINE
  5
586
  8
0
 10
1737.512162201076
 20
1495.054012017345
 30
0.0
 11
1738.312162201076
 21
1495.054012017345
 31
0.0
  0
LINE
  5
587
  8
0
 10
1734.483329913214
 20
1495.054012017345
 30
0.0
 11
1735.283329913214
 21
1495.054012017345
 31
0.0
  0
LINE
  5
588
  8
0
 10
1731.262162201076
 20
1495.054012017345
 30
0.0
 11
1732.062162201076
 21
1495.054012017345
 31
0.0
  0
LINE
  5
589
  8
0
 10
1728.233329913214
 20
1495.054012017345
 30
0.0
 11
1729.033329913214
 21
1495.054012017345
 31
0.0
  0
LINE
  5
58A
  8
0
 10
1725.012162201076
 20
1495.054012017345
 30
0.0
 11
1725.812162201076
 21
1495.054012017345
 31
0.0
  0
LINE
  5
58B
  8
0
 10
1721.983329913214
 20
1495.054012017345
 30
0.0
 11
1722.783329913214
 21
1495.054012017345
 31
0.0
  0
LINE
  5
58C
  8
0
 10
1718.762162201076
 20
1495.054012017345
 30
0.0
 11
1719.562162201076
 21
1495.054012017345
 31
0.0
  0
LINE
  5
58D
  8
0
 10
1715.733329913214
 20
1495.054012017345
 30
0.0
 11
1716.533329913214
 21
1495.054012017345
 31
0.0
  0
LINE
  5
58E
  8
0
 10
1712.512162201076
 20
1495.054012017345
 30
0.0
 11
1713.312162201076
 21
1495.054012017345
 31
0.0
  0
LINE
  5
58F
  8
0
 10
1709.483329913214
 20
1495.054012017345
 30
0.0
 11
1710.283329913214
 21
1495.054012017345
 31
0.0
  0
LINE
  5
590
  8
0
 10
1706.262162201076
 20
1495.054012017345
 30
0.0
 11
1707.062162201076
 21
1495.054012017345
 31
0.0
  0
LINE
  5
591
  8
0
 10
1703.233329913214
 20
1495.054012017345
 30
0.0
 11
1704.033329913214
 21
1495.054012017345
 31
0.0
  0
LINE
  5
592
  8
0
 10
1700.012162201076
 20
1495.054012017345
 30
0.0
 11
1700.812162201076
 21
1495.054012017345
 31
0.0
  0
LINE
  5
593
  8
0
 10
1696.828996489017
 20
1495.054012017345
 30
0.0
 11
1697.628996489017
 21
1495.054012017345
 31
0.0
  0
LINE
  5
594
  8
0
 10
1693.762162201076
 20
1495.054012017345
 30
0.0
 11
1694.562162201076
 21
1495.054012017345
 31
0.0
  0
LINE
  5
595
  8
0
 10
1690.578996489017
 20
1495.054012017345
 30
0.0
 11
1691.378996489017
 21
1495.054012017345
 31
0.0
  0
LINE
  5
596
  8
0
 10
1687.512162201076
 20
1495.054012017345
 30
0.0
 11
1688.312162201076
 21
1495.054012017345
 31
0.0
  0
LINE
  5
597
  8
0
 10
1684.328996489017
 20
1495.054012017345
 30
0.0
 11
1685.128996489017
 21
1495.054012017345
 31
0.0
  0
LINE
  5
598
  8
0
 10
1681.262162201076
 20
1495.054012017345
 30
0.0
 11
1682.062162201076
 21
1495.054012017345
 31
0.0
  0
LINE
  5
599
  8
0
 10
1678.078996489017
 20
1495.054012017345
 30
0.0
 11
1678.878996489017
 21
1495.054012017345
 31
0.0
  0
LINE
  5
59A
  8
0
 10
1675.012162201076
 20
1495.054012017345
 30
0.0
 11
1675.812162201076
 21
1495.054012017345
 31
0.0
  0
LINE
  5
59B
  8
0
 10
1671.828996489017
 20
1495.054012017345
 30
0.0
 11
1672.628996489017
 21
1495.054012017345
 31
0.0
  0
LINE
  5
59C
  8
0
 10
1668.762162201076
 20
1495.054012017345
 30
0.0
 11
1669.562162201076
 21
1495.054012017345
 31
0.0
  0
LINE
  5
59D
  8
0
 10
1665.578996489017
 20
1495.054012017345
 30
0.0
 11
1666.378996489017
 21
1495.054012017345
 31
0.0
  0
LINE
  5
59E
  8
0
 10
1662.512162201076
 20
1495.054012017345
 30
0.0
 11
1663.312162201076
 21
1495.054012017345
 31
0.0
  0
LINE
  5
59F
  8
0
 10
1659.328996489017
 20
1495.054012017345
 30
0.0
 11
1660.128996489017
 21
1495.054012017345
 31
0.0
  0
LINE
  5
5A0
  8
0
 10
1656.262162201076
 20
1495.054012017345
 30
0.0
 11
1657.062162201076
 21
1495.054012017345
 31
0.0
  0
LINE
  5
5A1
  8
0
 10
1653.078996489017
 20
1495.054012017345
 30
0.0
 11
1653.878996489017
 21
1495.054012017345
 31
0.0
  0
LINE
  5
5A2
  8
0
 10
1650.012162201076
 20
1495.054012017345
 30
0.0
 11
1650.812162201076
 21
1495.054012017345
 31
0.0
  0
LINE
  5
5A3
  8
0
 10
1646.828996489017
 20
1495.054012017345
 30
0.0
 11
1647.628996489017
 21
1495.054012017345
 31
0.0
  0
LINE
  5
5A4
  8
0
 10
1643.762162201076
 20
1495.054012017345
 30
0.0
 11
1644.562162201076
 21
1495.054012017345
 31
0.0
  0
LINE
  5
5A5
  8
0
 10
1640.694648618616
 20
1495.054012017345
 30
0.0
 11
1641.494648618616
 21
1495.054012017345
 31
0.0
  0
LINE
  5
5A6
  8
0
 10
1637.512162201076
 20
1495.054012017345
 30
0.0
 11
1638.312162201076
 21
1495.054012017345
 31
0.0
  0
LINE
  5
5A7
  8
0
 10
1634.444648618616
 20
1495.054012017345
 30
0.0
 11
1635.244648618616
 21
1495.054012017345
 31
0.0
  0
LINE
  5
5A8
  8
0
 10
1631.262162201076
 20
1495.054012017345
 30
0.0
 11
1632.062162201076
 21
1495.054012017345
 31
0.0
  0
LINE
  5
5A9
  8
0
 10
1628.194648618616
 20
1495.054012017345
 30
0.0
 11
1628.994648618616
 21
1495.054012017345
 31
0.0
  0
LINE
  5
5AA
  8
0
 10
1625.012162201076
 20
1495.054012017345
 30
0.0
 11
1625.812162201076
 21
1495.054012017345
 31
0.0
  0
LINE
  5
5AC
  8
0
 10
1615.694648618616
 20
1495.054012017345
 30
0.0
 11
1616.494648618616
 21
1495.054012017345
 31
0.0
  0
LINE
  5
5AE
  8
0
 10
1612.512162201076
 20
1495.054012017345
 30
0.0
 11
1613.312162201076
 21
1495.054012017345
 31
0.0
  0
LINE
  5
5AF
  8
0
 10
1609.444648618616
 20
1495.054012017345
 30
0.0
 11
1610.244648618616
 21
1495.054012017345
 31
0.0
  0
LINE
  5
5B0
  8
0
 10
1606.262162201076
 20
1495.054012017345
 30
0.0
 11
1607.062162201076
 21
1495.054012017345
 31
0.0
  0
LINE
  5
5B1
  8
0
 10
1603.194648618616
 20
1495.054012017345
 30
0.0
 11
1603.994648618616
 21
1495.054012017345
 31
0.0
  0
LINE
  5
5B2
  8
0
 10
1600.012162201076
 20
1495.054012017345
 30
0.0
 11
1600.812162201076
 21
1495.054012017345
 31
0.0
  0
LINE
  5
5B3
  8
0
 10
1596.940494315513
 20
1495.054012017345
 30
0.0
 11
1597.740494315512
 21
1495.054012017345
 31
0.0
  0
LINE
  5
5B4
  8
0
 10
1593.762162201076
 20
1495.054012017345
 30
0.0
 11
1594.562162201076
 21
1495.054012017345
 31
0.0
  0
ARC
  5
5B5
  8
0
 10
1750.066882127563
 20
1499.904826987701
 30
0.0
 40
157.0
 50
266.5647739068605
 51
266.8572089273234
  0
ARC
  5
5B6
  8
0
 10
1750.066882127563
 20
1499.904826987701
 30
0.0
 40
157.0
 50
265.4133673742247
 51
265.706199598637
  0
ARC
  5
5B7
  8
0
 10
1750.066882127563
 20
1499.904826987701
 30
0.0
 40
157.0
 50
264.2764341898537
 51
264.5697760088752
  0
ARC
  5
5B8
  8
0
 10
1750.066882127563
 20
1499.904826987701
 30
0.0
 40
157.0
 50
263.120866112673
 51
263.4148464322901
  0
ARC
  5
5B9
  8
0
 10
1750.066882127563
 20
1499.904826987701
 30
0.0
 40
157.0
 50
261.9788911011078
 51
262.2736230705715
  0
ARC
  5
5BA
  8
0
 10
1750.066882127563
 20
1499.904826987701
 30
0.0
 40
157.0
 50
260.8172372705539
 51
261.1128584638278
  0
ARC
  5
5BB
  8
0
 10
1750.066882127563
 20
1499.904826987701
 30
0.0
 40
157.0
 50
259.6682824187756
 51
259.9649085549267
  0
ARC
  5
5BC
  8
0
 10
1750.066882127563
 20
1499.904826987701
 30
0.0
 40
157.0
 50
258.498527373656
 51
258.7963069497974
  0
ARC
  5
5BD
  8
0
 10
1750.066882127563
 20
1499.904826987701
 30
0.0
 40
157.0
 50
257.3405484173769
 51
257.6396017397847
  0
ARC
  5
5BE
  8
0
 10
1750.066882127563
 20
1499.904826987701
 30
0.0
 40
157.0
 50
256.1605512180895
 51
256.4610403451069
  0
ARC
  5
5BF
  8
0
 10
1750.066882127563
 20
1499.904826987701
 30
0.0
 40
157.0
 50
254.9913613579515
 51
255.293413511753
  0
ARC
  5
5C0
  8
0
 10
1750.066882127563
 20
1499.904826987701
 30
0.0
 40
157.0
 50
253.7988157143956
 51
254.1026096766263
  0
ARC
  5
5C1
  8
0
 10
1750.066882127563
 20
1499.904826987701
 30
0.0
 40
157.0
 50
252.6160427340709
 51
252.9217154195498
  0
ARC
  5
5C2
  8
0
 10
1750.066882127563
 20
1499.904826987701
 30
0.0
 40
157.0
 50
251.4084292350901
 51
251.7161800236304
  0
ARC
  5
5C3
  8
0
 10
1750.066882127563
 20
1499.904826987701
 30
0.0
 40
157.0
 50
250.1051692717529
 51
250.415349944091
  0
ARC
  5
5C4
  8
0
 10
1750.066882127563
 20
1499.904826987701
 30
0.0
 40
157.0
 50
248.9839908585361
 51
249.29642271344
  0
ARC
  5
5C5
  8
0
 10
1750.066882127563
 20
1499.904826987701
 30
0.0
 40
157.0
 50
247.6598979623126
 51
247.9751870849358
  0
ARC
  5
5C6
  8
0
 10
1750.066882127563
 20
1499.904826987701
 30
0.0
 40
157.0
 50
246.5194517620905
 51
246.8373808113598
  0
ARC
  5
5C7
  8
0
 10
1750.066882127563
 20
1499.904826987701
 30
0.0
 40
157.0
 50
245.1709334914055
 51
245.4922068477426
  0
ARC
  5
5C8
  8
0
 10
1750.066882127563
 20
1499.904826987701
 30
0.0
 40
157.0
 50
244.0079377521824
 51
244.3322973934164
  0
ARC
  5
5C9
  8
0
 10
1750.066882127563
 20
1499.904826987701
 30
0.0
 40
157.0
 50
240.0310646800019
 51
240.3675098736765
  0
ARC
  5
5CA
  8
0
 10
1750.066882127563
 20
1499.904826987701
 30
0.0
 40
157.0
 50
237.3613264603437
 51
237.7073604049809
  0
ARC
  5
5CB
  8
0
 10
1750.066882127563
 20
1499.904826987701
 30
0.0
 40
157.0
 50
236.1049516329273
 51
236.4559564788337
  0
ARC
  5
5CC
  8
0
 10
1750.066882127563
 20
1499.904826987701
 30
0.0
 40
157.0
 50
234.6093448601574
 51
234.9666824489198
  0
ARC
  5
5CD
  8
0
 10
1750.066882127563
 20
1499.904826987701
 30
0.0
 40
157.0
 50
230.4098728905534
 51
230.7876986225146
  0
ARC
  5
5CE
  8
0
 10
1750.066882127563
 20
1499.904826987701
 30
0.0
 40
157.0
 50
231.7599810747807
 51
232.1307518039031
  0
ARC
  5
5CF
  8
0
 10
1750.066882127563
 20
1499.904826987701
 30
0.0
 40
157.0
 50
233.3103242875386
 51
233.6734371357122
  0
ARC
  5
5D0
  8
0
 10
1750.066882127563
 20
1499.904826987701
 30
0.0
 40
157.0
 50
228.7941672663472
 51
229.1810821966902
  0
ARC
  5
5D1
  8
0
 10
1750.066882127563
 20
1499.904826987701
 30
0.0
 40
157.0
 50
227.3825497712362
 51
227.7780311663531
  0
ARC
  5
5D2
  8
0
 10
1750.066882127563
 20
1499.904826987701
 30
0.0
 40
157.0
 50
225.8594059525237
 51
226.2648449604724
  0
ARC
  5
5D3
  8
0
 10
1750.066882127563
 20
1499.904826987701
 30
0.0
 40
157.0
 50
224.2001284971421
 51
224.6173408977664
  0
ARC
  5
5D4
  8
0
 10
1750.066882127563
 20
1499.904826987701
 30
0.0
 40
157.0
 50
222.5887200118876
 51
223.0183879527166
  0
ARC
  5
5D5
  8
0
 10
1750.066882127563
 20
1499.904826987701
 30
0.0
 40
157.0
 50
220.8242913039287
 51
221.2688869778126
  0
ARC
  5
5D6
  8
0
 10
1750.066882127563
 20
1499.904826987701
 30
0.0
 40
157.0
 50
219.1006503287322
 51
219.5612912717405
  0
ARC
  5
5D7
  8
0
 10
1750.066882127563
 20
1499.904826987701
 30
0.0
 40
157.0
 50
217.2002880431049
 51
217.6805259319679
  0
ARC
  5
5D8
  8
0
 10
1750.066882127563
 20
1499.904826987701
 30
0.0
 40
157.0
 50
215.328686874324
 51
215.8304698387054
  0
ARC
  5
5D9
  8
0
 10
1750.066882127563
 20
1499.904826987701
 30
0.0
 40
157.0
 50
213.244812354303
 51
213.7736463141527
  0
ARC
  5
5DA
  8
0
 10
1750.066882127563
 20
1499.904826987701
 30
0.0
 40
157.0
 50
211.1435639841332
 51
211.7035491945261
  0
ARC
  5
5DB
  8
0
 10
1750.066882127563
 20
1499.904826987701
 30
0.0
 40
157.0
 50
208.8192571393403
 51
209.4192101801315
  0
ARC
  5
5DC
  8
0
 10
1750.066882127563
 20
1499.904826987701
 30
0.0
 40
157.0
 50
206.4037037498842
 51
207.0528382623605
  0
ARC
  5
5DD
  8
0
 10
1750.066882127563
 20
1499.904826987701
 30
0.0
 40
157.0
 50
200.6922339742953
 51
201.5033102705529
  0
ARC
  5
5DE
  8
0
 10
1750.066882127563
 20
1499.904826987701
 30
0.0
 40
157.0
 50
203.6584797924043
 51
204.3757963421625
  0
ARC
  5
5DF
  8
0
 10
1750.066882127563
 20
1499.904826987701
 30
0.0
 40
157.0
 50
197.1059358016527
 51
198.0720807805275
  0
POLYLINE
  5
5E0
  8
0
 66
     1
 10
0.0
 20
0.0
 30
0.0
  0
VERTEX
  5
BAD
  8
0
 10
1596.940494315513
 20
1465.244917068119
 30
0.0
  0
VERTEX
  5
BAE
  8
0
 10
1596.940494315513
 20
1495.054012017345
 30
0.0
  0
SEQEND
  5
1404
  8
0
  0
ARC
  5
5E1
  8
0
 10
1750.066882127563
 20
1499.904826987701
 30
0.0
 40
157.0
 50
192.7538960930675
 51
194.0151392351828
  0
ARC
  5
5E2
  8
0
 10
1750.066882127563
 20
1499.904826987701
 30
0.0
 40
157.0
 50
185.3942131048927
 51
187.9139694278368
  0
ARC
  5
5E3
  8
0
 10
1750.066882127563
 20
1499.904826987701
 30
0.0
 40
157.0
 50
242.6308642701225
 51
242.9591318007559
  0
ARC
  5
5E4
  8
0
 10
1750.066882127563
 20
1499.904826987701
 30
0.0
 40
157.0
 50
241.4415168435514
 51
241.7733912995291
  0
ARC
  5
5E5
  8
0
 10
1750.066882127563
 20
1499.904826987701
 30
0.0
 40
157.0
 50
240.0310646800019
 51
240.3675098736765
  0
ARC
  5
5E6
  8
0
 10
1750.066882127563
 20
1499.904826987701
 30
0.0
 40
157.0
 50
238.8108877173858
 51
239.1515574612315
  0
ARC
  5
5E7
  8
0
 10
1750.066882127563
 20
1499.904826987701
 30
0.0
 40
157.0
 50
237.3613264603437
 51
237.7073604049809
  0
POLYLINE
  5
5E8
  8
0
 66
     1
 10
0.0
 20
0.0
 30
0.0
 70
     1
  0
VERTEX
  5
BAF
  8
0
 10
1810.315985431991
 20
1400.324750214709
 30
0.0
  0
VERTEX
  5
BB0
  8
0
 10
1810.315985431991
 20
1401.124750214709
 30
0.0
  0
VERTEX
  5
BB1
  8
0
 10
1850.315985431991
 20
1401.124750214709
 30
0.0
  0
VERTEX
  5
BB2
  8
0
 10
1850.315985431991
 20
1400.324750214709
 30
0.0
  0
SEQEND
  5
1405
  8
0
  0
POLYLINE
  5
5E9
  8
0
 66
     1
 10
0.0
 20
0.0
 30
0.0
 70
     1
  0
VERTEX
  5
BB3
  8
0
 10
1810.315985431991
 20
1406.574750214709
 30
0.0
  0
VERTEX
  5
BB4
  8
0
 10
1810.315985431991
 20
1407.374750214709
 30
0.0
  0
VERTEX
  5
BB5
  8
0
 10
1850.315985431991
 20
1407.374750214709
 30
0.0
  0
VERTEX
  5
BB6
  8
0
 10
1850.315985431991
 20
1406.574750214709
 30
0.0
  0
SEQEND
  5
1406
  8
0
  0
POLYLINE
  5
5EA
  8
0
 66
     1
 10
0.0
 20
0.0
 30
0.0
 70
     1
  0
VERTEX
  5
BB7
  8
0
 10
1810.315985431991
 20
1412.824750214709
 30
0.0
  0
VERTEX
  5
BB8
  8
0
 10
1810.315985431991
 20
1413.624750214709
 30
0.0
  0
VERTEX
  5
BB9
  8
0
 10
1850.315985431991
 20
1413.624750214709
 30
0.0
  0
VERTEX
  5
BBA
  8
0
 10
1850.315985431991
 20
1412.824750214709
 30
0.0
  0
SEQEND
  5
1407
  8
0
  0
POLYLINE
  5
5EB
  8
0
 66
     1
 10
0.0
 20
0.0
 30
0.0
 70
     1
  0
VERTEX
  5
BBB
  8
0
 10
1810.315985431991
 20
1419.074750214709
 30
0.0
  0
VERTEX
  5
BBC
  8
0
 10
1810.315985431991
 20
1419.874750214709
 30
0.0
  0
VERTEX
  5
BBD
  8
0
 10
1850.315985431991
 20
1419.874750214709
 30
0.0
  0
VERTEX
  5
BBE
  8
0
 10
1850.315985431991
 20
1419.074750214709
 30
0.0
  0
SEQEND
  5
1408
  8
0
  0
POLYLINE
  5
5EC
  8
0
 66
     1
 10
0.0
 20
0.0
 30
0.0
 70
     1
  0
VERTEX
  5
BBF
  8
0
 10
1810.315985431991
 20
1425.324750214709
 30
0.0
  0
VERTEX
  5
BC0
  8
0
 10
1810.315985431991
 20
1426.124750214709
 30
0.0
  0
VERTEX
  5
BC1
  8
0
 10
1850.315985431991
 20
1426.124750214709
 30
0.0
  0
VERTEX
  5
BC2
  8
0
 10
1850.315985431991
 20
1425.324750214709
 30
0.0
  0
SEQEND
  5
1409
  8
0
  0
POLYLINE
  5
5ED
  8
0
 66
     1
 10
0.0
 20
0.0
 30
0.0
 70
     1
  0
VERTEX
  5
BC3
  8
0
 10
1810.315985431991
 20
1431.574750214709
 30
0.0
  0
VERTEX
  5
BC4
  8
0
 10
1810.315985431991
 20
1432.374750214709
 30
0.0
  0
VERTEX
  5
BC5
  8
0
 10
1850.315985431991
 20
1432.374750214709
 30
0.0
  0
VERTEX
  5
BC6
  8
0
 10
1850.315985431991
 20
1431.574750214709
 30
0.0
  0
SEQEND
  5
140A
  8
0
  0
POLYLINE
  5
5EE
  8
0
 66
     1
 10
0.0
 20
0.0
 30
0.0
 70
     1
  0
VERTEX
  5
BC7
  8
0
 10
1810.315985431991
 20
1437.824750214709
 30
0.0
  0
VERTEX
  5
BC8
  8
0
 10
1810.315985431991
 20
1438.624750214709
 30
0.0
  0
VERTEX
  5
BC9
  8
0
 10
1850.315985431991
 20
1438.624750214709
 30
0.0
  0
VERTEX
  5
BCA
  8
0
 10
1850.315985431991
 20
1437.824750214709
 30
0.0
  0
SEQEND
  5
140B
  8
0
  0
POLYLINE
  5
5EF
  8
0
 66
     1
 10
0.0
 20
0.0
 30
0.0
 70
     1
  0
VERTEX
  5
BCB
  8
0
 10
1810.315985431991
 20
1444.074750214709
 30
0.0
  0
VERTEX
  5
BCC
  8
0
 10
1810.315985431991
 20
1444.874750214709
 30
0.0
  0
VERTEX
  5
BCD
  8
0
 10
1850.315985431991
 20
1444.874750214709
 30
0.0
  0
VERTEX
  5
BCE
  8
0
 10
1850.315985431991
 20
1444.074750214709
 30
0.0
  0
SEQEND
  5
140C
  8
0
  0
POLYLINE
  5
5F0
  8
0
 66
     1
 10
0.0
 20
0.0
 30
0.0
 70
     1
  0
VERTEX
  5
BCF
  8
0
 10
1810.315985431991
 20
1450.324750214709
 30
0.0
  0
VERTEX
  5
BD0
  8
0
 10
1810.315985431991
 20
1451.124750214709
 30
0.0
  0
VERTEX
  5
BD1
  8
0
 10
1850.315985431991
 20
1451.124750214709
 30
0.0
  0
VERTEX
  5
BD2
  8
0
 10
1850.315985431991
 20
1450.324750214709
 30
0.0
  0
SEQEND
  5
140D
  8
0
  0
POLYLINE
  5
5F1
  8
0
 66
     1
 10
0.0
 20
0.0
 30
0.0
 70
     1
  0
VERTEX
  5
BD3
  8
0
 10
1784.741812654595
 20
1397.14158450265
 30
0.0
  0
VERTEX
  5
BD4
  8
0
 10
1784.741812654595
 20
1397.94158450265
 30
0.0
  0
VERTEX
  5
BD5
  8
0
 10
1824.741812654595
 20
1397.94158450265
 30
0.0
  0
VERTEX
  5
BD6
  8
0
 10
1824.741812654595
 20
1397.14158450265
 30
0.0
  0
SEQEND
  5
140E
  8
0
  0
POLYLINE
  5
5F2
  8
0
 66
     1
 10
0.0
 20
0.0
 30
0.0
 70
     1
  0
VERTEX
  5
BD7
  8
0
 10
1784.741812654595
 20
1403.39158450265
 30
0.0
  0
VERTEX
  5
BD8
  8
0
 10
1784.741812654595
 20
1404.19158450265
 30
0.0
  0
VERTEX
  5
BD9
  8
0
 10
1824.741812654595
 20
1404.19158450265
 30
0.0
  0
VERTEX
  5
BDA
  8
0
 10
1824.741812654595
 20
1403.39158450265
 30
0.0
  0
SEQEND
  5
140F
  8
0
  0
POLYLINE
  5
5F3
  8
0
 66
     1
 10
0.0
 20
0.0
 30
0.0
 70
     1
  0
VERTEX
  5
BDB
  8
0
 10
1784.741812654595
 20
1409.64158450265
 30
0.0
  0
VERTEX
  5
BDC
  8
0
 10
1784.741812654595
 20
1410.44158450265
 30
0.0
  0
VERTEX
  5
BDD
  8
0
 10
1824.741812654595
 20
1410.44158450265
 30
0.0
  0
VERTEX
  5
BDE
  8
0
 10
1824.741812654595
 20
1409.64158450265
 30
0.0
  0
SEQEND
  5
1410
  8
0
  0
POLYLINE
  5
5F4
  8
0
 66
     1
 10
0.0
 20
0.0
 30
0.0
 70
     1
  0
VERTEX
  5
BDF
  8
0
 10
1784.741812654595
 20
1415.89158450265
 30
0.0
  0
VERTEX
  5
BE0
  8
0
 10
1784.741812654595
 20
1416.69158450265
 30
0.0
  0
VERTEX
  5
BE1
  8
0
 10
1824.741812654595
 20
1416.69158450265
 30
0.0
  0
VERTEX
  5
BE2
  8
0
 10
1824.741812654595
 20
1415.89158450265
 30
0.0
  0
SEQEND
  5
1411
  8
0
  0
POLYLINE
  5
5F5
  8
0
 66
     1
 10
0.0
 20
0.0
 30
0.0
 70
     1
  0
VERTEX
  5
BE3
  8
0
 10
1784.741812654595
 20
1422.14158450265
 30
0.0
  0
VERTEX
  5
BE4
  8
0
 10
1784.741812654595
 20
1422.94158450265
 30
0.0
  0
VERTEX
  5
BE5
  8
0
 10
1824.741812654595
 20
1422.94158450265
 30
0.0
  0
VERTEX
  5
BE6
  8
0
 10
1824.741812654595
 20
1422.14158450265
 30
0.0
  0
SEQEND
  5
1412
  8
0
  0
POLYLINE
  5
5F6
  8
0
 66
     1
 10
0.0
 20
0.0
 30
0.0
 70
     1
  0
VERTEX
  5
BE7
  8
0
 10
1784.741812654595
 20
1428.39158450265
 30
0.0
  0
VERTEX
  5
BE8
  8
0
 10
1784.741812654595
 20
1429.19158450265
 30
0.0
  0
VERTEX
  5
BE9
  8
0
 10
1824.741812654595
 20
1429.19158450265
 30
0.0
  0
VERTEX
  5
BEA
  8
0
 10
1824.741812654595
 20
1428.39158450265
 30
0.0
  0
SEQEND
  5
1413
  8
0
  0
POLYLINE
  5
5F7
  8
0
 66
     1
 10
0.0
 20
0.0
 30
0.0
 70
     1
  0
VERTEX
  5
BEB
  8
0
 10
1784.741812654595
 20
1434.64158450265
 30
0.0
  0
VERTEX
  5
BEC
  8
0
 10
1784.741812654595
 20
1435.44158450265
 30
0.0
  0
VERTEX
  5
BED
  8
0
 10
1824.741812654595
 20
1435.44158450265
 30
0.0
  0
VERTEX
  5
BEE
  8
0
 10
1824.741812654595
 20
1434.64158450265
 30
0.0
  0
SEQEND
  5
1414
  8
0
  0
POLYLINE
  5
5F8
  8
0
 66
     1
 10
0.0
 20
0.0
 30
0.0
  0
VERTEX
  5
BEF
  8
0
 10
1868.540762889051
 20
1396.953199843883
 30
0.0
  0
VERTEX
  5
BF0
  8
0
 10
1837.6306518468
 20
1396.953199843883
 30
0.0
  0
VERTEX
  5
BF1
  8
0
 10
1837.6306518468
 20
1397.753199843884
 30
0.0
  0
VERTEX
  5
BF2
  8
0
 10
1869.236495699031
 20
1397.753199843884
 30
0.0
  0
SEQEND
  5
1415
  8
0
  0
POLYLINE
  5
5F9
  8
0
 66
     1
 10
0.0
 20
0.0
 30
0.0
  0
VERTEX
  5
BF3
  8
0
 10
1873.733838796634
 20
1403.203199843883
 30
0.0
  0
VERTEX
  5
BF4
  8
0
 10
1837.6306518468
 20
1403.203199843883
 30
0.0
  0
VERTEX
  5
BF5
  8
0
 10
1837.6306518468
 20
1404.003199843884
 30
0.0
  0
VERTEX
  5
BF6
  8
0
 10
1874.360096678472
 20
1404.003199843884
 30
0.0
  0
SEQEND
  5
1416
  8
0
  0
POLYLINE
  5
5FA
  8
0
 66
     1
 10
0.0
 20
0.0
 30
0.0
  0
VERTEX
  5
BF7
  8
0
 10
1878.412045993759
 20
1409.453199843883
 30
0.0
  0
VERTEX
  5
BF8
  8
0
 10
1837.6306518468
 20
1409.453199843883
 30
0.0
  0
VERTEX
  5
BF9
  8
0
 10
1837.6306518468
 20
1410.253199843884
 30
0.0
  0
VERTEX
  5
BFA
  8
0
 10
1878.976634594819
 20
1410.253199843884
 30
0.0
  0
SEQEND
  5
1417
  8
0
  0
POLYLINE
  5
5FB
  8
0
 66
     1
 10
0.0
 20
0.0
 30
0.0
  0
VERTEX
  5
BFB
  8
0
 10
1882.630052028303
 20
1415.703199843883
 30
0.0
  0
VERTEX
  5
BFC
  8
0
 10
1837.6306518468
 20
1415.703199843883
 30
0.0
  0
VERTEX
  5
BFD
  8
0
 10
1837.6306518468
 20
1416.503199843884
 30
0.0
  0
VERTEX
  5
BFE
  8
0
 10
1883.139034350203
 20
1416.503199843884
 30
0.0
  0
SEQEND
  5
1418
  8
0
  0
POLYLINE
  5
5FC
  8
0
 66
     1
 10
0.0
 20
0.0
 30
0.0
  0
VERTEX
  5
BFF
  8
0
 10
1886.430680028853
 20
1421.953199843883
 30
0.0
  0
VERTEX
  5
C00
  8
0
 10
1837.6306518468
 20
1421.953199843883
 30
0.0
  0
VERTEX
  5
C01
  8
0
 10
1837.6306518468
 20
1422.753199843884
 30
0.0
  0
VERTEX
  5
C02
  8
0
 10
1886.888857564398
 20
1422.753199843884
 30
0.0
  0
SEQEND
  5
1419
  8
0
  0
POLYLINE
  5
5FD
  8
0
 66
     1
 10
0.0
 20
0.0
 30
0.0
  0
VERTEX
  5
C03
  8
0
 10
1889.848066250079
 20
1428.203199843883
 30
0.0
  0
VERTEX
  5
C04
  8
0
 10
1837.6306518468
 20
1428.203199843883
 30
0.0
  0
VERTEX
  5
C05
  8
0
 10
1837.6306518468
 20
1429.003199843884
 30
0.0
  0
VERTEX
  5
C06
  8
0
 10
1890.259298694446
 20
1429.003199843884
 30
0.0
  0
SEQEND
  5
141A
  8
0
  0
POLYLINE
  5
5FE
  8
0
 66
     1
 10
0.0
 20
0.0
 30
0.0
 70
     1
  0
VERTEX
  5
C07
  8
0
 10
1784.741812654595
 20
1440.89158450265
 30
0.0
  0
VERTEX
  5
C08
  8
0
 10
1784.741812654595
 20
1441.69158450265
 30
0.0
  0
VERTEX
  5
C09
  8
0
 10
1824.741812654595
 20
1441.69158450265
 30
0.0
  0
VERTEX
  5
C0A
  8
0
 10
1824.741812654595
 20
1440.89158450265
 30
0.0
  0
SEQEND
  5
141B
  8
0
  0
POLYLINE
  5
5FF
  8
0
 66
     1
 10
0.0
 20
0.0
 30
0.0
 70
     1
  0
VERTEX
  5
C0B
  8
0
 10
1784.741812654595
 20
1447.14158450265
 30
0.0
  0
VERTEX
  5
C0C
  8
0
 10
1784.741812654595
 20
1447.94158450265
 30
0.0
  0
VERTEX
  5
C0D
  8
0
 10
1824.741812654595
 20
1447.94158450265
 30
0.0
  0
VERTEX
  5
C0E
  8
0
 10
1824.741812654595
 20
1447.14158450265
 30
0.0
  0
SEQEND
  5
141C
  8
0
  0
POLYLINE
  5
600
  8
0
 66
     1
 10
0.0
 20
0.0
 30
0.0
 70
     1
  0
VERTEX
  5
C0F
  8
0
 10
1837.6306518468
 20
1434.453199843883
 30
0.0
  0
VERTEX
  5
C10
  8
0
 10
1837.6306518468
 20
1435.253199843884
 30
0.0
  0
VERTEX
  5
C11
  8
0
 10
1877.6306518468
 20
1435.253199843884
 30
0.0
  0
VERTEX
  5
C12
  8
0
 10
1877.6306518468
 20
1434.453199843883
 30
0.0
  0
SEQEND
  5
141D
  8
0
  0
POLYLINE
  5
601
  8
0
 66
     1
 10
0.0
 20
0.0
 30
0.0
 70
     1
  0
VERTEX
  5
C13
  8
0
 10
1837.6306518468
 20
1440.703199843883
 30
0.0
  0
VERTEX
  5
C14
  8
0
 10
1837.6306518468
 20
1441.503199843884
 30
0.0
  0
VERTEX
  5
C15
  8
0
 10
1877.6306518468
 20
1441.503199843884
 30
0.0
  0
VERTEX
  5
C16
  8
0
 10
1877.6306518468
 20
1440.703199843883
 30
0.0
  0
SEQEND
  5
141E
  8
0
  0
POLYLINE
  5
602
  8
0
 66
     1
 10
0.0
 20
0.0
 30
0.0
 70
     1
  0
VERTEX
  5
C17
  8
0
 10
1837.6306518468
 20
1446.953199843883
 30
0.0
  0
VERTEX
  5
C18
  8
0
 10
1837.6306518468
 20
1447.753199843884
 30
0.0
  0
VERTEX
  5
C19
  8
0
 10
1877.6306518468
 20
1447.753199843884
 30
0.0
  0
VERTEX
  5
C1A
  8
0
 10
1877.6306518468
 20
1446.953199843883
 30
0.0
  0
SEQEND
  5
141F
  8
0
  0
POLYLINE
  5
603
  8
0
 66
     1
 10
0.0
 20
0.0
 30
0.0
  0
VERTEX
  5
C1B
  8
0
 10
1755.272965387081
 20
1401.124750214709
 30
0.0
  0
VERTEX
  5
C1C
  8
0
 10
1800.315985431991
 20
1401.124750214709
 30
0.0
  0
VERTEX
  5
C1D
  8
0
 10
1800.315985431991
 20
1400.324750214709
 30
0.0
  0
VERTEX
  5
C1E
  8
0
 10
1755.272965387081
 20
1400.324750214709
 30
0.0
  0
SEQEND
  5
1420
  8
0
  0
POLYLINE
  5
604
  8
0
 66
     1
 10
0.0
 20
0.0
 30
0.0
  0
VERTEX
  5
C1F
  8
0
 10
1755.272965387081
 20
1407.374750214709
 30
0.0
  0
VERTEX
  5
C20
  8
0
 10
1800.315985431991
 20
1407.374750214709
 30
0.0
  0
VERTEX
  5
C21
  8
0
 10
1800.315985431991
 20
1406.574750214709
 30
0.0
  0
VERTEX
  5
C22
  8
0
 10
1755.272965387081
 20
1406.574750214709
 30
0.0
  0
SEQEND
  5
1421
  8
0
  0
POLYLINE
  5
605
  8
0
 66
     1
 10
0.0
 20
0.0
 30
0.0
  0
VERTEX
  5
C23
  8
0
 10
1755.272965387081
 20
1413.624750214709
 30
0.0
  0
VERTEX
  5
C24
  8
0
 10
1800.315985431991
 20
1413.624750214709
 30
0.0
  0
VERTEX
  5
C25
  8
0
 10
1800.315985431991
 20
1412.824750214709
 30
0.0
  0
VERTEX
  5
C26
  8
0
 10
1755.272965387081
 20
1412.824750214709
 30
0.0
  0
SEQEND
  5
1422
  8
0
  0
POLYLINE
  5
606
  8
0
 66
     1
 10
0.0
 20
0.0
 30
0.0
  0
VERTEX
  5
C27
  8
0
 10
1755.272965387081
 20
1419.874750214709
 30
0.0
  0
VERTEX
  5
C28
  8
0
 10
1800.315985431991
 20
1419.874750214709
 30
0.0
  0
VERTEX
  5
C29
  8
0
 10
1800.315985431991
 20
1419.074750214709
 30
0.0
  0
VERTEX
  5
C2A
  8
0
 10
1755.272965387081
 20
1419.074750214709
 30
0.0
  0
SEQEND
  5
1423
  8
0
  0
POLYLINE
  5
607
  8
0
 66
     1
 10
0.0
 20
0.0
 30
0.0
  0
VERTEX
  5
C2B
  8
0
 10
1755.272965387081
 20
1426.124750214709
 30
0.0
  0
VERTEX
  5
C2C
  8
0
 10
1800.315985431991
 20
1426.124750214709
 30
0.0
  0
VERTEX
  5
C2D
  8
0
 10
1800.315985431991
 20
1425.324750214709
 30
0.0
  0
VERTEX
  5
C2E
  8
0
 10
1755.272965387081
 20
1425.324750214709
 30
0.0
  0
SEQEND
  5
1424
  8
0
  0
POLYLINE
  5
608
  8
0
 66
     1
 10
0.0
 20
0.0
 30
0.0
  0
VERTEX
  5
C2F
  8
0
 10
1755.272965387081
 20
1432.374750214709
 30
0.0
  0
VERTEX
  5
C30
  8
0
 10
1800.315985431991
 20
1432.374750214709
 30
0.0
  0
VERTEX
  5
C31
  8
0
 10
1800.315985431991
 20
1431.574750214709
 30
0.0
  0
VERTEX
  5
C32
  8
0
 10
1755.272965387081
 20
1431.574750214709
 30
0.0
  0
SEQEND
  5
1425
  8
0
  0
POLYLINE
  5
609
  8
0
 66
     1
 10
0.0
 20
0.0
 30
0.0
  0
VERTEX
  5
C33
  8
0
 10
1755.272965387081
 20
1438.624750214709
 30
0.0
  0
VERTEX
  5
C34
  8
0
 10
1800.315985431991
 20
1438.624750214709
 30
0.0
  0
VERTEX
  5
C35
  8
0
 10
1800.315985431991
 20
1437.824750214709
 30
0.0
  0
VERTEX
  5
C36
  8
0
 10
1755.272965387081
 20
1437.824750214709
 30
0.0
  0
SEQEND
  5
1426
  8
0
  0
POLYLINE
  5
60A
  8
0
 66
     1
 10
0.0
 20
0.0
 30
0.0
  0
VERTEX
  5
C37
  8
0
 10
1755.272965387081
 20
1444.874750214709
 30
0.0
  0
VERTEX
  5
C38
  8
0
 10
1800.315985431991
 20
1444.874750214709
 30
0.0
  0
VERTEX
  5
C39
  8
0
 10
1800.315985431991
 20
1444.074750214709
 30
0.0
  0
VERTEX
  5
C3A
  8
0
 10
1755.272965387081
 20
1444.074750214709
 30
0.0
  0
SEQEND
  5
1427
  8
0
  0
POLYLINE
  5
60B
  8
0
 66
     1
 10
0.0
 20
0.0
 30
0.0
  0
VERTEX
  5
C3B
  8
0
 10
1755.272965387081
 20
1451.124750214709
 30
0.0
  0
VERTEX
  5
C3C
  8
0
 10
1800.315985431991
 20
1451.124750214709
 30
0.0
  0
VERTEX
  5
C3D
  8
0
 10
1800.315985431991
 20
1450.324750214709
 30
0.0
  0
VERTEX
  5
C3E
  8
0
 10
1755.272965387081
 20
1450.324750214709
 30
0.0
  0
SEQEND
  5
1428
  8
0
  0
POLYLINE
  5
60C
  8
0
 66
     1
 10
0.0
 20
0.0
 30
0.0
 70
     1
  0
VERTEX
  5
C3F
  8
0
 10
1810.315985431991
 20
1456.574750214709
 30
0.0
  0
VERTEX
  5
C40
  8
0
 10
1810.315985431991
 20
1457.374750214709
 30
0.0
  0
VERTEX
  5
C41
  8
0
 10
1850.315985431991
 20
1457.374750214709
 30
0.0
  0
VERTEX
  5
C42
  8
0
 10
1850.315985431991
 20
1456.574750214709
 30
0.0
  0
SEQEND
  5
1429
  8
0
  0
POLYLINE
  5
60D
  8
0
 66
     1
 10
0.0
 20
0.0
 30
0.0
 70
     1
  0
VERTEX
  5
C43
  8
0
 10
1810.315985431991
 20
1462.824750214709
 30
0.0
  0
VERTEX
  5
C44
  8
0
 10
1810.315985431991
 20
1463.624750214709
 30
0.0
  0
VERTEX
  5
C45
  8
0
 10
1850.315985431991
 20
1463.624750214709
 30
0.0
  0
VERTEX
  5
C46
  8
0
 10
1850.315985431991
 20
1462.824750214709
 30
0.0
  0
SEQEND
  5
142A
  8
0
  0
POLYLINE
  5
60E
  8
0
 66
     1
 10
0.0
 20
0.0
 30
0.0
 70
     1
  0
VERTEX
  5
C47
  8
0
 10
1810.315985431991
 20
1469.074750214709
 30
0.0
  0
VERTEX
  5
C48
  8
0
 10
1810.315985431991
 20
1469.874750214709
 30
0.0
  0
VERTEX
  5
C49
  8
0
 10
1850.315985431991
 20
1469.874750214709
 30
0.0
  0
VERTEX
  5
C4A
  8
0
 10
1850.315985431991
 20
1469.074750214709
 30
0.0
  0
SEQEND
  5
142B
  8
0
  0
POLYLINE
  5
60F
  8
0
 66
     1
 10
0.0
 20
0.0
 30
0.0
 70
     1
  0
VERTEX
  5
C4B
  8
0
 10
1810.315985431991
 20
1475.324750214709
 30
0.0
  0
VERTEX
  5
C4C
  8
0
 10
1810.315985431991
 20
1476.124750214709
 30
0.0
  0
VERTEX
  5
C4D
  8
0
 10
1850.315985431991
 20
1476.124750214709
 30
0.0
  0
VERTEX
  5
C4E
  8
0
 10
1850.315985431991
 20
1475.324750214709
 30
0.0
  0
SEQEND
  5
142C
  8
0
  0
POLYLINE
  5
610
  8
0
 66
     1
 10
0.0
 20
0.0
 30
0.0
 70
     1
  0
VERTEX
  5
C4F
  8
0
 10
1810.315985431991
 20
1481.574750214709
 30
0.0
  0
VERTEX
  5
C50
  8
0
 10
1810.315985431991
 20
1482.374750214709
 30
0.0
  0
VERTEX
  5
C51
  8
0
 10
1850.315985431991
 20
1482.374750214709
 30
0.0
  0
VERTEX
  5
C52
  8
0
 10
1850.315985431991
 20
1481.574750214709
 30
0.0
  0
SEQEND
  5
142D
  8
0
  0
POLYLINE
  5
611
  8
0
 66
     1
 10
0.0
 20
0.0
 30
0.0
 70
     1
  0
VERTEX
  5
C53
  8
0
 10
1810.315985431991
 20
1487.824750214709
 30
0.0
  0
VERTEX
  5
C54
  8
0
 10
1810.315985431991
 20
1488.624750214709
 30
0.0
  0
VERTEX
  5
C55
  8
0
 10
1850.315985431991
 20
1488.624750214709
 30
0.0
  0
VERTEX
  5
C56
  8
0
 10
1850.315985431991
 20
1487.824750214709
 30
0.0
  0
SEQEND
  5
142E
  8
0
  0
POLYLINE
  5
612
  8
0
 66
     1
 10
0.0
 20
0.0
 30
0.0
 70
     1
  0
VERTEX
  5
C57
  8
0
 10
1810.315985431991
 20
1494.074750214709
 30
0.0
  0
VERTEX
  5
C58
  8
0
 10
1810.315985431991
 20
1494.874750214709
 30
0.0
  0
VERTEX
  5
C59
  8
0
 10
1850.315985431991
 20
1494.874750214709
 30
0.0
  0
VERTEX
  5
C5A
  8
0
 10
1850.315985431991
 20
1494.074750214709
 30
0.0
  0
SEQEND
  5
142F
  8
0
  0
POLYLINE
  5
613
  8
0
 66
     1
 10
0.0
 20
0.0
 30
0.0
  0
VERTEX
  5
C5B
  8
0
 10
1755.272965387081
 20
1457.374750214709
 30
0.0
  0
VERTEX
  5
C5C
  8
0
 10
1800.315985431991
 20
1457.374750214709
 30
0.0
  0
VERTEX
  5
C5D
  8
0
 10
1800.315985431991
 20
1456.574750214709
 30
0.0
  0
VERTEX
  5
C5E
  8
0
 10
1755.272965387081
 20
1456.574750214709
 30
0.0
  0
SEQEND
  5
1430
  8
0
  0
POLYLINE
  5
614
  8
0
 66
     1
 10
0.0
 20
0.0
 30
0.0
  0
VERTEX
  5
C5F
  8
0
 10
1755.272965387081
 20
1463.624750214709
 30
0.0
  0
VERTEX
  5
C60
  8
0
 10
1800.315985431991
 20
1463.624750214709
 30
0.0
  0
VERTEX
  5
C61
  8
0
 10
1800.315985431991
 20
1462.824750214709
 30
0.0
  0
VERTEX
  5
C62
  8
0
 10
1755.272965387081
 20
1462.824750214709
 30
0.0
  0
SEQEND
  5
1431
  8
0
  0
POLYLINE
  5
615
  8
0
 66
     1
 10
0.0
 20
0.0
 30
0.0
  0
VERTEX
  5
C63
  8
0
 10
1755.272965387081
 20
1469.874750214709
 30
0.0
  0
VERTEX
  5
C64
  8
0
 10
1800.315985431991
 20
1469.874750214709
 30
0.0
  0
VERTEX
  5
C65
  8
0
 10
1800.315985431991
 20
1469.074750214709
 30
0.0
  0
VERTEX
  5
C66
  8
0
 10
1755.272965387081
 20
1469.074750214709
 30
0.0
  0
SEQEND
  5
1432
  8
0
  0
POLYLINE
  5
616
  8
0
 66
     1
 10
0.0
 20
0.0
 30
0.0
  0
VERTEX
  5
C67
  8
0
 10
1755.272965387081
 20
1476.124750214709
 30
0.0
  0
VERTEX
  5
C68
  8
0
 10
1800.315985431991
 20
1476.124750214709
 30
0.0
  0
VERTEX
  5
C69
  8
0
 10
1800.315985431991
 20
1475.324750214709
 30
0.0
  0
VERTEX
  5
C6A
  8
0
 10
1755.272965387081
 20
1475.324750214709
 30
0.0
  0
SEQEND
  5
1433
  8
0
  0
POLYLINE
  5
617
  8
0
 66
     1
 10
0.0
 20
0.0
 30
0.0
  0
VERTEX
  5
C6B
  8
0
 10
1755.272965387081
 20
1482.374750214709
 30
0.0
  0
VERTEX
  5
C6C
  8
0
 10
1800.315985431991
 20
1482.374750214709
 30
0.0
  0
VERTEX
  5
C6D
  8
0
 10
1800.315985431991
 20
1481.574750214709
 30
0.0
  0
VERTEX
  5
C6E
  8
0
 10
1755.272965387081
 20
1481.574750214709
 30
0.0
  0
SEQEND
  5
1434
  8
0
  0
POLYLINE
  5
618
  8
0
 66
     1
 10
0.0
 20
0.0
 30
0.0
  0
VERTEX
  5
C6F
  8
0
 10
1755.272965387081
 20
1488.624750214709
 30
0.0
  0
VERTEX
  5
C70
  8
0
 10
1800.315985431991
 20
1488.624750214709
 30
0.0
  0
VERTEX
  5
C71
  8
0
 10
1800.315985431991
 20
1487.824750214709
 30
0.0
  0
VERTEX
  5
C72
  8
0
 10
1755.272965387081
 20
1487.824750214709
 30
0.0
  0
SEQEND
  5
1435
  8
0
  0
POLYLINE
  5
619
  8
0
 66
     1
 10
0.0
 20
0.0
 30
0.0
  0
VERTEX
  5
C73
  8
0
 10
1755.272965387081
 20
1494.874750214709
 30
0.0
  0
VERTEX
  5
C74
  8
0
 10
1800.315985431991
 20
1494.874750214709
 30
0.0
  0
VERTEX
  5
C75
  8
0
 10
1800.315985431991
 20
1494.074750214709
 30
0.0
  0
VERTEX
  5
C76
  8
0
 10
1755.272965387081
 20
1494.074750214709
 30
0.0
  0
SEQEND
  5
1436
  8
0
  0
POLYLINE
  5
61A
  8
0
 66
     1
 10
0.0
 20
0.0
 30
0.0
 70
     1
  0
VERTEX
  5
C77
  8
0
 10
1810.315985431991
 20
1456.574750214709
 30
0.0
  0
VERTEX
  5
C78
  8
0
 10
1810.315985431991
 20
1457.374750214709
 30
0.0
  0
VERTEX
  5
C79
  8
0
 10
1850.315985431991
 20
1457.374750214709
 30
0.0
  0
VERTEX
  5
C7A
  8
0
 10
1850.315985431991
 20
1456.574750214709
 30
0.0
  0
SEQEND
  5
1437
  8
0
  0
POLYLINE
  5
61B
  8
0
 66
     1
 10
0.0
 20
0.0
 30
0.0
 70
     1
  0
VERTEX
  5
C7B
  8
0
 10
1810.315985431991
 20
1462.824750214709
 30
0.0
  0
VERTEX
  5
C7C
  8
0
 10
1810.315985431991
 20
1463.624750214709
 30
0.0
  0
VERTEX
  5
C7D
  8
0
 10
1850.315985431991
 20
1463.624750214709
 30
0.0
  0
VERTEX
  5
C7E
  8
0
 10
1850.315985431991
 20
1462.824750214709
 30
0.0
  0
SEQEND
  5
1438
  8
0
  0
POLYLINE
  5
61C
  8
0
 66
     1
 10
0.0
 20
0.0
 30
0.0
 70
     1
  0
VERTEX
  5
C7F
  8
0
 10
1810.315985431991
 20
1469.074750214709
 30
0.0
  0
VERTEX
  5
C80
  8
0
 10
1810.315985431991
 20
1469.874750214709
 30
0.0
  0
VERTEX
  5
C81
  8
0
 10
1850.315985431991
 20
1469.874750214709
 30
0.0
  0
VERTEX
  5
C82
  8
0
 10
1850.315985431991
 20
1469.074750214709
 30
0.0
  0
SEQEND
  5
1439
  8
0
  0
POLYLINE
  5
61D
  8
0
 66
     1
 10
0.0
 20
0.0
 30
0.0
 70
     1
  0
VERTEX
  5
C83
  8
0
 10
1810.315985431991
 20
1475.324750214709
 30
0.0
  0
VERTEX
  5
C84
  8
0
 10
1810.315985431991
 20
1476.124750214709
 30
0.0
  0
VERTEX
  5
C85
  8
0
 10
1850.315985431991
 20
1476.124750214709
 30
0.0
  0
VERTEX
  5
C86
  8
0
 10
1850.315985431991
 20
1475.324750214709
 30
0.0
  0
SEQEND
  5
143A
  8
0
  0
POLYLINE
  5
61E
  8
0
 66
     1
 10
0.0
 20
0.0
 30
0.0
 70
     1
  0
VERTEX
  5
C87
  8
0
 10
1810.315985431991
 20
1481.574750214709
 30
0.0
  0
VERTEX
  5
C88
  8
0
 10
1810.315985431991
 20
1482.374750214709
 30
0.0
  0
VERTEX
  5
C89
  8
0
 10
1850.315985431991
 20
1482.374750214709
 30
0.0
  0
VERTEX
  5
C8A
  8
0
 10
1850.315985431991
 20
1481.574750214709
 30
0.0
  0
SEQEND
  5
143B
  8
0
  0
POLYLINE
  5
61F
  8
0
 66
     1
 10
0.0
 20
0.0
 30
0.0
 70
     1
  0
VERTEX
  5
C8B
  8
0
 10
1810.315985431991
 20
1487.824750214709
 30
0.0
  0
VERTEX
  5
C8C
  8
0
 10
1810.315985431991
 20
1488.624750214709
 30
0.0
  0
VERTEX
  5
C8D
  8
0
 10
1850.315985431991
 20
1488.624750214709
 30
0.0
  0
VERTEX
  5
C8E
  8
0
 10
1850.315985431991
 20
1487.824750214709
 30
0.0
  0
SEQEND
  5
143C
  8
0
  0
POLYLINE
  5
620
  8
0
 66
     1
 10
0.0
 20
0.0
 30
0.0
 70
     1
  0
VERTEX
  5
C8F
  8
0
 10
1810.315985431991
 20
1494.074750214709
 30
0.0
  0
VERTEX
  5
C90
  8
0
 10
1810.315985431991
 20
1494.874750214709
 30
0.0
  0
VERTEX
  5
C91
  8
0
 10
1850.315985431991
 20
1494.874750214709
 30
0.0
  0
VERTEX
  5
C92
  8
0
 10
1850.315985431991
 20
1494.074750214709
 30
0.0
  0
SEQEND
  5
143D
  8
0
  0
POLYLINE
  5
621
  8
0
 66
     1
 10
0.0
 20
0.0
 30
0.0
  0
VERTEX
  5
C93
  8
0
 10
1813.423757752289
 20
1356.574750214709
 30
0.0
  0
VERTEX
  5
C94
  8
0
 10
1810.315985431991
 20
1356.574750214709
 30
0.0
  0
VERTEX
  5
C95
  8
0
 10
1810.315985431991
 20
1357.374750214709
 30
0.0
  0
VERTEX
  5
C96
  8
0
 10
1815.219141695233
 20
1357.374750214709
 30
0.0
  0
SEQEND
  5
143E
  8
0
  0
POLYLINE
  5
622
  8
0
 66
     1
 10
0.0
 20
0.0
 30
0.0
  0
VERTEX
  5
C97
  8
0
 10
1826.103713732672
 20
1362.824750214709
 30
0.0
  0
VERTEX
  5
C98
  8
0
 10
1810.315985431991
 20
1362.824750214709
 30
0.0
  0
VERTEX
  5
C99
  8
0
 10
1810.315985431991
 20
1363.624750214709
 30
0.0
  0
VERTEX
  5
C9A
  8
0
 10
1827.539895312619
 20
1363.624750214709
 30
0.0
  0
SEQEND
  5
143F
  8
0
  0
POLYLINE
  5
623
  8
0
 66
     1
 10
0.0
 20
0.0
 30
0.0
  0
VERTEX
  5
C9B
  8
0
 10
1836.492299278144
 20
1369.074750214709
 30
0.0
  0
VERTEX
  5
C9C
  8
0
 10
1810.315985431991
 20
1369.074750214709
 30
0.0
  0
VERTEX
  5
C9D
  8
0
 10
1810.315985431991
 20
1369.874750214709
 30
0.0
  0
VERTEX
  5
C9E
  8
0
 10
1837.700544518068
 20
1369.874750214709
 30
0.0
  0
SEQEND
  5
1440
  8
0
  0
POLYLINE
  5
624
  8
0
 66
     1
 10
0.0
 20
0.0
 30
0.0
  0
VERTEX
  5
C9F
  8
0
 10
1845.344840138982
 20
1375.324750214709
 30
0.0
  0
VERTEX
  5
CA0
  8
0
 10
1810.315985431991
 20
1375.324750214709
 30
0.0
  0
VERTEX
  5
CA1
  8
0
 10
1810.315985431991
 20
1376.124750214709
 30
0.0
  0
VERTEX
  5
CA2
  8
0
 10
1846.389668754912
 20
1376.124750214709
 30
0.0
  0
SEQEND
  5
1441
  8
0
  0
POLYLINE
  5
625
  8
0
 66
     1
 10
0.0
 20
0.0
 30
0.0
  0
VERTEX
  5
CA3
  8
0
 10
1853.059563299109
 20
1381.574750214709
 30
0.0
  0
VERTEX
  5
CA4
  8
0
 10
1810.315985431991
 20
1381.574750214709
 30
0.0
  0
VERTEX
  5
CA5
  8
0
 10
1810.315985431991
 20
1382.374750214709
 30
0.0
  0
VERTEX
  5
CA6
  8
0
 10
1853.978348082878
 20
1382.374750214709
 30
0.0
  0
SEQEND
  5
1442
  8
0
  0
POLYLINE
  5
626
  8
0
 66
     1
 10
0.0
 20
0.0
 30
0.0
  0
VERTEX
  5
CA7
  8
0
 10
1859.877323991436
 20
1387.824750214709
 30
0.0
  0
VERTEX
  5
CA8
  8
0
 10
1810.315985431991
 20
1387.824750214709
 30
0.0
  0
VERTEX
  5
CA9
  8
0
 10
1810.315985431991
 20
1388.624750214709
 30
0.0
  0
VERTEX
  5
CAA
  8
0
 10
1860.694007996764
 20
1388.624750214709
 30
0.0
  0
SEQEND
  5
1443
  8
0
  0
POLYLINE
  5
627
  8
0
 66
     1
 10
0.0
 20
0.0
 30
0.0
 70
     1
  0
VERTEX
  5
CAB
  8
0
 10
1810.315985431991
 20
1394.074750214709
 30
0.0
  0
VERTEX
  5
CAC
  8
0
 10
1810.315985431991
 20
1394.874750214709
 30
0.0
  0
VERTEX
  5
CAD
  8
0
 10
1850.315985431991
 20
1394.874750214709
 30
0.0
  0
VERTEX
  5
CAE
  8
0
 10
1850.315985431991
 20
1394.074750214709
 30
0.0
  0
SEQEND
  5
1444
  8
0
  0
POLYLINE
  5
628
  8
0
 66
     1
 10
0.0
 20
0.0
 30
0.0
  0
VERTEX
  5
CAF
  8
0
 10
1899.229156344138
 20
1450.324750214709
 30
0.0
  0
VERTEX
  5
CB0
  8
0
 10
1860.315985431991
 20
1450.324750214709
 30
0.0
  0
VERTEX
  5
CB1
  8
0
 10
1860.315985431991
 20
1451.124750214709
 30
0.0
  0
VERTEX
  5
CB2
  8
0
 10
1899.49586562153
 20
1451.124750214709
 30
0.0
  0
SEQEND
  5
1445
  8
0
  0
POLYLINE
  5
629
  8
0
 66
     1
 10
0.0
 20
0.0
 30
0.0
  0
VERTEX
  5
CB3
  8
0
 10
1901.187353670533
 20
1456.574750214709
 30
0.0
  0
VERTEX
  5
CB4
  8
0
 10
1860.315985431991
 20
1456.574750214709
 30
0.0
  0
VERTEX
  5
CB5
  8
0
 10
1860.315985431991
 20
1457.374750214709
 30
0.0
  0
VERTEX
  5
CB6
  8
0
 10
1901.417494927887
 20
1457.374750214709
 30
0.0
  0
SEQEND
  5
1446
  8
0
  0
POLYLINE
  5
62A
  8
0
 66
     1
 10
0.0
 20
0.0
 30
0.0
  0
VERTEX
  5
CB7
  8
0
 10
1902.86441165436
 20
1462.824750214709
 30
0.0
  0
VERTEX
  5
CB8
  8
0
 10
1860.315985431991
 20
1462.824750214709
 30
0.0
  0
VERTEX
  5
CB9
  8
0
 10
1860.315985431991
 20
1463.624750214709
 30
0.0
  0
VERTEX
  5
CBA
  8
0
 10
1903.059270944877
 20
1463.624750214709
 30
0.0
  0
SEQEND
  5
1447
  8
0
  0
POLYLINE
  5
62B
  8
0
 66
     1
 10
0.0
 20
0.0
 30
0.0
  0
VERTEX
  5
CBB
  8
0
 10
1904.269524493517
 20
1469.074750214709
 30
0.0
  0
VERTEX
  5
CBC
  8
0
 10
1860.315985431991
 20
1469.074750214709
 30
0.0
  0
VERTEX
  5
CBD
  8
0
 10
1860.315985431991
 20
1469.874750214709
 30
0.0
  0
VERTEX
  5
CBE
  8
0
 10
1904.430143917733
 20
1469.874750214709
 30
0.0
  0
SEQEND
  5
1448
  8
0
  0
POLYLINE
  5
62C
  8
0
 66
     1
 10
0.0
 20
0.0
 30
0.0
  0
VERTEX
  5
CBF
  8
0
 10
1905.410088687435
 20
1475.324750214709
 30
0.0
  0
VERTEX
  5
CC0
  8
0
 10
1860.315985431991
 20
1475.324750214709
 30
0.0
  0
VERTEX
  5
CC1
  8
0
 10
1860.315985431991
 20
1476.124750214709
 30
0.0
  0
VERTEX
  5
CC2
  8
0
 10
1905.537296554321
 20
1476.124750214709
 30
0.0
  0
SEQEND
  5
1449
  8
0
  0
POLYLINE
  5
62D
  8
0
 66
     1
 10
0.0
 20
0.0
 30
0.0
  0
VERTEX
  5
CC3
  8
0
 10
1906.291911783343
 20
1481.574750214709
 30
0.0
  0
VERTEX
  5
CC4
  8
0
 10
1860.315985431991
 20
1481.574750214709
 30
0.0
  0
VERTEX
  5
CC5
  8
0
 10
1860.315985431991
 20
1482.374750214709
 30
0.0
  0
VERTEX
  5
CC6
  8
0
 10
1906.386345219151
 20
1482.374750214709
 30
0.0
  0
SEQEND
  5
144A
  8
0
  0
POLYLINE
  5
62E
  8
0
 66
     1
 10
0.0
 20
0.0
 30
0.0
  0
VERTEX
  5
CC7
  8
0
 10
1906.919367668559
 20
1487.824750214709
 30
0.0
  0
VERTEX
  5
CC8
  8
0
 10
1860.315985431991
 20
1487.824750214709
 30
0.0
  0
VERTEX
  5
CC9
  8
0
 10
1860.315985431991
 20
1488.624750214709
 30
0.0
  0
VERTEX
  5
CCA
  8
0
 10
1906.981489197425
 20
1488.624750214709
 30
0.0
  0
SEQEND
  5
144B
  8
0
  0
POLYLINE
  5
62F
  8
0
 66
     1
 10
0.0
 20
0.0
 30
0.0
  0
VERTEX
  5
CCB
  8
0
 10
1907.295508596655
 20
1494.074750214709
 30
0.0
  0
VERTEX
  5
CCC
  8
0
 10
1881.056179205709
 20
1494.074750214709
 30
0.0
  0
SEQEND
  5
144C
  8
0
  0
POLYLINE
  5
630
  8
0
 66
     1
 10
0.0
 20
0.0
 30
0.0
  0
VERTEX
  5
CCD
  8
0
 10
1901.187353670533
 20
1456.574750214709
 30
0.0
  0
VERTEX
  5
CCE
  8
0
 10
1860.315985431991
 20
1456.574750214709
 30
0.0
  0
VERTEX
  5
CCF
  8
0
 10
1860.315985431991
 20
1457.374750214709
 30
0.0
  0
VERTEX
  5
CD0
  8
0
 10
1901.417494927887
 20
1457.374750214709
 30
0.0
  0
SEQEND
  5
144D
  8
0
  0
POLYLINE
  5
631
  8
0
 66
     1
 10
0.0
 20
0.0
 30
0.0
  0
VERTEX
  5
CD1
  8
0
 10
1902.86441165436
 20
1462.824750214709
 30
0.0
  0
VERTEX
  5
CD2
  8
0
 10
1860.315985431991
 20
1462.824750214709
 30
0.0
  0
VERTEX
  5
CD3
  8
0
 10
1860.315985431991
 20
1463.624750214709
 30
0.0
  0
VERTEX
  5
CD4
  8
0
 10
1903.059270944877
 20
1463.624750214709
 30
0.0
  0
SEQEND
  5
144E
  8
0
  0
POLYLINE
  5
632
  8
0
 66
     1
 10
0.0
 20
0.0
 30
0.0
  0
VERTEX
  5
CD5
  8
0
 10
1904.269524493517
 20
1469.074750214709
 30
0.0
  0
VERTEX
  5
CD6
  8
0
 10
1860.315985431991
 20
1469.074750214709
 30
0.0
  0
VERTEX
  5
CD7
  8
0
 10
1860.315985431991
 20
1469.874750214709
 30
0.0
  0
VERTEX
  5
CD8
  8
0
 10
1904.430143917733
 20
1469.874750214709
 30
0.0
  0
SEQEND
  5
144F
  8
0
  0
POLYLINE
  5
633
  8
0
 66
     1
 10
0.0
 20
0.0
 30
0.0
  0
VERTEX
  5
CD9
  8
0
 10
1905.410088687435
 20
1475.324750214709
 30
0.0
  0
VERTEX
  5
CDA
  8
0
 10
1860.315985431991
 20
1475.324750214709
 30
0.0
  0
VERTEX
  5
CDB
  8
0
 10
1860.315985431991
 20
1476.124750214709
 30
0.0
  0
VERTEX
  5
CDC
  8
0
 10
1905.537296554321
 20
1476.124750214709
 30
0.0
  0
SEQEND
  5
1450
  8
0
  0
POLYLINE
  5
634
  8
0
 66
     1
 10
0.0
 20
0.0
 30
0.0
  0
VERTEX
  5
CDD
  8
0
 10
1906.291911783343
 20
1481.574750214709
 30
0.0
  0
VERTEX
  5
CDE
  8
0
 10
1860.315985431991
 20
1481.574750214709
 30
0.0
  0
VERTEX
  5
CDF
  8
0
 10
1860.315985431991
 20
1482.374750214709
 30
0.0
  0
VERTEX
  5
CE0
  8
0
 10
1906.386345219151
 20
1482.374750214709
 30
0.0
  0
SEQEND
  5
1451
  8
0
  0
POLYLINE
  5
635
  8
0
 66
     1
 10
0.0
 20
0.0
 30
0.0
  0
VERTEX
  5
CE1
  8
0
 10
1906.919367668559
 20
1487.824750214709
 30
0.0
  0
VERTEX
  5
CE2
  8
0
 10
1860.315985431991
 20
1487.824750214709
 30
0.0
  0
VERTEX
  5
CE3
  8
0
 10
1860.315985431991
 20
1488.624750214709
 30
0.0
  0
VERTEX
  5
CE4
  8
0
 10
1906.981489197425
 20
1488.624750214709
 30
0.0
  0
SEQEND
  5
1452
  8
0
  0
POLYLINE
  5
636
  8
0
 66
     1
 10
0.0
 20
0.0
 30
0.0
  0
VERTEX
  5
CE5
  8
0
 10
1907.295508596655
 20
1494.074750214709
 30
0.0
  0
VERTEX
  5
CE6
  8
0
 10
1881.056179205709
 20
1494.074750214709
 30
0.0
  0
SEQEND
  5
1453
  8
0
  0
POLYLINE
  5
637
  8
0
 66
     1
 10
0.0
 20
0.0
 30
0.0
  0
VERTEX
  5
CE7
  8
0
 10
1765.181368848011
 20
1344.074750214709
 30
0.0
  0
VERTEX
  5
CE8
  8
0
 10
1755.272965387081
 20
1344.074750214709
 30
0.0
  0
SEQEND
  5
1454
  8
0
  0
POLYLINE
  5
638
  8
0
 66
     1
 10
0.0
 20
0.0
 30
0.0
  0
VERTEX
  5
CE9
  8
0
 10
1755.272965387081
 20
1344.874750214709
 30
0.0
  0
VERTEX
  5
CEA
  8
0
 10
1772.038858782819
 20
1344.874750214709
 30
0.0
  0
SEQEND
  5
1455
  8
0
  0
POLYLINE
  5
639
  8
0
 66
     1
 10
0.0
 20
0.0
 30
0.0
  0
VERTEX
  5
CEB
  8
0
 10
1796.602027287322
 20
1350.324750214709
 30
0.0
  0
VERTEX
  5
CEC
  8
0
 10
1755.272965387081
 20
1350.324750214709
 30
0.0
  0
SEQEND
  5
1456
  8
0
  0
POLYLINE
  5
63A
  8
0
 66
     1
 10
0.0
 20
0.0
 30
0.0
  0
VERTEX
  5
CED
  8
0
 10
1755.272965387081
 20
1351.124750214709
 30
0.0
  0
VERTEX
  5
CEE
  8
0
 10
1799.125626469938
 20
1351.124750214709
 30
0.0
  0
SEQEND
  5
1457
  8
0
  0
POLYLINE
  5
63B
  8
0
 66
     1
 10
0.0
 20
0.0
 30
0.0
  0
VERTEX
  5
CEF
  8
0
 10
1755.272965387081
 20
1357.374750214709
 30
0.0
  0
VERTEX
  5
CF0
  8
0
 10
1800.315985431991
 20
1357.374750214709
 30
0.0
  0
VERTEX
  5
CF1
  8
0
 10
1800.315985431991
 20
1356.574750214709
 30
0.0
  0
VERTEX
  5
CF2
  8
0
 10
1755.272965387081
 20
1356.574750214709
 30
0.0
  0
SEQEND
  5
1458
  8
0
  0
POLYLINE
  5
63C
  8
0
 66
     1
 10
0.0
 20
0.0
 30
0.0
  0
VERTEX
  5
CF3
  8
0
 10
1755.272965387081
 20
1363.624750214709
 30
0.0
  0
VERTEX
  5
CF4
  8
0
 10
1800.315985431991
 20
1363.624750214709
 30
0.0
  0
VERTEX
  5
CF5
  8
0
 10
1800.315985431991
 20
1362.824750214709
 30
0.0
  0
VERTEX
  5
CF6
  8
0
 10
1755.272965387081
 20
1362.824750214709
 30
0.0
  0
SEQEND
  5
1459
  8
0
  0
POLYLINE
  5
63D
  8
0
 66
     1
 10
0.0
 20
0.0
 30
0.0
  0
VERTEX
  5
CF7
  8
0
 10
1756.504355831911
 20
1369.874750214709
 30
0.0
  0
VERTEX
  5
CF8
  8
0
 10
1800.315985431991
 20
1369.874750214709
 30
0.0
  0
VERTEX
  5
CF9
  8
0
 10
1800.315985431991
 20
1369.074750214709
 30
0.0
  0
VERTEX
  5
CFA
  8
0
 10
1756.438877101293
 20
1369.074750214709
 30
0.0
  0
SEQEND
  5
145A
  8
0
  0
POLYLINE
  5
63E
  8
0
 66
     1
 10
0.0
 20
0.0
 30
0.0
  0
VERTEX
  5
CFB
  8
0
 10
1755.272965387081
 20
1376.124750214709
 30
0.0
  0
VERTEX
  5
CFC
  8
0
 10
1800.315985431991
 20
1376.124750214709
 30
0.0
  0
VERTEX
  5
CFD
  8
0
 10
1800.315985431991
 20
1375.324750214709
 30
0.0
  0
VERTEX
  5
CFE
  8
0
 10
1755.272965387081
 20
1375.324750214709
 30
0.0
  0
SEQEND
  5
145B
  8
0
  0
POLYLINE
  5
63F
  8
0
 66
     1
 10
0.0
 20
0.0
 30
0.0
  0
VERTEX
  5
CFF
  8
0
 10
1755.272965387081
 20
1382.374750214709
 30
0.0
  0
VERTEX
  5
D00
  8
0
 10
1800.315985431991
 20
1382.374750214709
 30
0.0
  0
VERTEX
  5
D01
  8
0
 10
1800.315985431991
 20
1381.574750214709
 30
0.0
  0
VERTEX
  5
D02
  8
0
 10
1755.272965387081
 20
1381.574750214709
 30
0.0
  0
SEQEND
  5
145C
  8
0
  0
POLYLINE
  5
640
  8
0
 66
     1
 10
0.0
 20
0.0
 30
0.0
  0
VERTEX
  5
D03
  8
0
 10
1755.272965387081
 20
1388.624750214709
 30
0.0
  0
VERTEX
  5
D04
  8
0
 10
1800.315985431991
 20
1388.624750214709
 30
0.0
  0
VERTEX
  5
D05
  8
0
 10
1800.315985431991
 20
1387.824750214709
 30
0.0
  0
VERTEX
  5
D06
  8
0
 10
1755.272965387081
 20
1387.824750214709
 30
0.0
  0
SEQEND
  5
145D
  8
0
  0
POLYLINE
  5
641
  8
0
 66
     1
 10
0.0
 20
0.0
 30
0.0
  0
VERTEX
  5
D07
  8
0
 10
1755.272965387081
 20
1394.874750214709
 30
0.0
  0
VERTEX
  5
D08
  8
0
 10
1800.315985431991
 20
1394.874750214709
 30
0.0
  0
VERTEX
  5
D09
  8
0
 10
1800.315985431991
 20
1394.074750214709
 30
0.0
  0
VERTEX
  5
D0A
  8
0
 10
1755.272965387081
 20
1394.074750214709
 30
0.0
  0
SEQEND
  5
145E
  8
0
  0
POLYLINE
  5
642
  8
0
 66
     1
 10
0.0
 20
0.0
 30
0.0
  0
VERTEX
  5
D0B
  8
0
 10
1865.957021868383
 20
1394.074750214709
 30
0.0
  0
VERTEX
  5
D0C
  8
0
 10
1860.315985431991
 20
1394.074750214709
 30
0.0
  0
VERTEX
  5
D0D
  8
0
 10
1860.315985431991
 20
1394.874750214709
 30
0.0
  0
VERTEX
  5
D0E
  8
0
 10
1866.6880270669
 20
1394.874750214709
 30
0.0
  0
SEQEND
  5
145F
  8
0
  0
POLYLINE
  5
643
  8
0
 66
     1
 10
0.0
 20
0.0
 30
0.0
  0
VERTEX
  5
D0F
  8
0
 10
1880.741646343446
 20
1412.824750214709
 30
0.0
  0
VERTEX
  5
D10
  8
0
 10
1860.315985431991
 20
1412.824750214709
 30
0.0
  0
VERTEX
  5
D11
  8
0
 10
1860.315985431991
 20
1413.624750214709
 30
0.0
  0
VERTEX
  5
D12
  8
0
 10
1881.275574408904
 20
1413.624750214709
 30
0.0
  0
SEQEND
  5
1460
  8
0
  0
POLYLINE
  5
644
  8
0
 66
     1
 10
0.0
 20
0.0
 30
0.0
  0
VERTEX
  5
D13
  8
0
 10
1884.729791739457
 20
1419.074750214709
 30
0.0
  0
VERTEX
  5
D14
  8
0
 10
1860.315985431991
 20
1419.074750214709
 30
0.0
  0
VERTEX
  5
D15
  8
0
 10
1860.315985431991
 20
1419.874750214709
 30
0.0
  0
VERTEX
  5
D16
  8
0
 10
1885.210837143609
 20
1419.874750214709
 30
0.0
  0
SEQEND
  5
1461
  8
0
  0
POLYLINE
  5
645
  8
0
 66
     1
 10
0.0
 20
0.0
 30
0.0
  0
VERTEX
  5
D17
  8
0
 10
1888.319898827483
 20
1425.324750214709
 30
0.0
  0
VERTEX
  5
D18
  8
0
 10
1860.315985431991
 20
1425.324750214709
 30
0.0
  0
VERTEX
  5
D19
  8
0
 10
1860.315985431991
 20
1426.124750214709
 30
0.0
  0
VERTEX
  5
D1A
  8
0
 10
1888.752322717055
 20
1426.124750214709
 30
0.0
  0
SEQEND
  5
1462
  8
0
  0
POLYLINE
  5
646
  8
0
 66
     1
 10
0.0
 20
0.0
 30
0.0
  0
VERTEX
  5
D1B
  8
0
 10
1891.542349239707
 20
1431.574750214709
 30
0.0
  0
VERTEX
  5
D1C
  8
0
 10
1860.315985431991
 20
1431.574750214709
 30
0.0
  0
VERTEX
  5
D1D
  8
0
 10
1860.315985431991
 20
1432.374750214709
 30
0.0
  0
VERTEX
  5
D1E
  8
0
 10
1891.929599223211
 20
1432.374750214709
 30
0.0
  0
SEQEND
  5
1463
  8
0
  0
POLYLINE
  5
647
  8
0
 66
     1
 10
0.0
 20
0.0
 30
0.0
  0
VERTEX
  5
D1F
  8
0
 10
1894.421827551498
 20
1437.824750214709
 30
0.0
  0
VERTEX
  5
D20
  8
0
 10
1860.315985431991
 20
1437.824750214709
 30
0.0
  0
VERTEX
  5
D21
  8
0
 10
1860.315985431991
 20
1438.624750214709
 30
0.0
  0
VERTEX
  5
D22
  8
0
 10
1894.766719302434
 20
1438.624750214709
 30
0.0
  0
SEQEND
  5
1464
  8
0
  0
POLYLINE
  5
648
  8
0
 66
     1
 10
0.0
 20
0.0
 30
0.0
  0
VERTEX
  5
D23
  8
0
 10
1871.409972202359
 20
1400.324750214709
 30
0.0
  0
VERTEX
  5
D24
  8
0
 10
1860.315985431991
 20
1400.324750214709
 30
0.0
  0
VERTEX
  5
D25
  8
0
 10
1860.315985431991
 20
1401.124750214709
 30
0.0
  0
VERTEX
  5
D26
  8
0
 10
1872.067128004436
 20
1401.124750214709
 30
0.0
  0
SEQEND
  5
1465
  8
0
  0
POLYLINE
  5
649
  8
0
 66
     1
 10
0.0
 20
0.0
 30
0.0
  0
VERTEX
  5
D27
  8
0
 10
1876.317831496806
 20
1406.575006039627
 30
0.0
  0
VERTEX
  5
D28
  8
0
 10
1860.315985431991
 20
1406.574750214709
 30
0.0
  0
VERTEX
  5
D29
  8
0
 10
1860.315985431991
 20
1407.374750214709
 30
0.0
  0
VERTEX
  5
D2A
  8
0
 10
1876.909786458339
 20
1407.374750214709
 30
0.0
  0
SEQEND
  5
1466
  8
0
  0
POLYLINE
  5
64A
  8
0
 66
     1
 10
0.0
 20
0.0
 30
0.0
  0
VERTEX
  5
D2B
  8
0
 10
1880.741646343446
 20
1412.824750214709
 30
0.0
  0
VERTEX
  5
D2C
  8
0
 10
1860.315985431991
 20
1412.824750214709
 30
0.0
  0
VERTEX
  5
D2D
  8
0
 10
1860.315985431991
 20
1413.624750214709
 30
0.0
  0
VERTEX
  5
D2E
  8
0
 10
1881.275574408904
 20
1413.624750214709
 30
0.0
  0
SEQEND
  5
1467
  8
0
  0
POLYLINE
  5
64B
  8
0
 66
     1
 10
0.0
 20
0.0
 30
0.0
  0
VERTEX
  5
D2F
  8
0
 10
1884.729791739457
 20
1419.074750214709
 30
0.0
  0
VERTEX
  5
D30
  8
0
 10
1860.315985431991
 20
1419.074750214709
 30
0.0
  0
VERTEX
  5
D31
  8
0
 10
1860.315985431991
 20
1419.874750214709
 30
0.0
  0
VERTEX
  5
D32
  8
0
 10
1885.210837143609
 20
1419.874750214709
 30
0.0
  0
SEQEND
  5
1468
  8
0
  0
POLYLINE
  5
64C
  8
0
 66
     1
 10
0.0
 20
0.0
 30
0.0
  0
VERTEX
  5
D33
  8
0
 10
1888.319898827483
 20
1425.324750214709
 30
0.0
  0
VERTEX
  5
D34
  8
0
 10
1860.315985431991
 20
1425.324750214709
 30
0.0
  0
VERTEX
  5
D35
  8
0
 10
1860.315985431991
 20
1426.124750214709
 30
0.0
  0
VERTEX
  5
D36
  8
0
 10
1888.752322717055
 20
1426.124750214709
 30
0.0
  0
SEQEND
  5
1469
  8
0
  0
POLYLINE
  5
64D
  8
0
 66
     1
 10
0.0
 20
0.0
 30
0.0
  0
VERTEX
  5
D37
  8
0
 10
1891.542349239707
 20
1431.574750214709
 30
0.0
  0
VERTEX
  5
D38
  8
0
 10
1860.315985431991
 20
1431.574750214709
 30
0.0
  0
VERTEX
  5
D39
  8
0
 10
1860.315985431991
 20
1432.374750214709
 30
0.0
  0
VERTEX
  5
D3A
  8
0
 10
1891.929599223211
 20
1432.374750214709
 30
0.0
  0
SEQEND
  5
146A
  8
0
  0
POLYLINE
  5
64E
  8
0
 66
     1
 10
0.0
 20
0.0
 30
0.0
  0
VERTEX
  5
D3B
  8
0
 10
1894.421827551498
 20
1437.824750214709
 30
0.0
  0
VERTEX
  5
D3C
  8
0
 10
1860.315985431991
 20
1437.824750214709
 30
0.0
  0
VERTEX
  5
D3D
  8
0
 10
1860.315985431991
 20
1438.624750214709
 30
0.0
  0
VERTEX
  5
D3E
  8
0
 10
1894.766719302434
 20
1438.624750214709
 30
0.0
  0
SEQEND
  5
146B
  8
0
  0
POLYLINE
  5
64F
  8
0
 66
     1
 10
0.0
 20
0.0
 30
0.0
  0
VERTEX
  5
D3F
  8
0
 10
1896.978550870612
 20
1444.074750214709
 30
0.0
  0
VERTEX
  5
D40
  8
0
 10
1860.315985431991
 20
1444.074750214709
 30
0.0
  0
VERTEX
  5
D41
  8
0
 10
1860.315985431991
 20
1444.874750214709
 30
0.0
  0
VERTEX
  5
D42
  8
0
 10
1897.283398082276
 20
1444.874750214709
 30
0.0
  0
SEQEND
  5
146C
  8
0
  0
ARC
  5
650
  8
0
 10
1750.422150416725
 20
1500.379470141196
 30
0.0
 40
157.0
 50
357.698528648415
 51
357.9906886842542
  0
ARC
  5
651
  8
0
 10
1750.422150416725
 20
1500.379470141196
 30
0.0
 40
157.0
 50
275.3942131048909
 51
277.9139694278437
  0
ARC
  5
652
  8
0
 10
1750.422150416725
 20
1500.379470141196
 30
0.0
 40
157.0
 50
282.7538960930769
 51
284.015139235176
  0
ARC
  5
653
  8
0
 10
1750.422150416725
 20
1500.379470141196
 30
0.0
 40
157.0
 50
287.1059358016454
 51
288.0720807805278
  0
ARC
  5
654
  8
0
 10
1750.422150416725
 20
1500.379470141196
 30
0.0
 40
157.0
 50
290.6922339742983
 51
291.5033102705475
  0
ARC
  5
655
  8
0
 10
1750.422150416725
 20
1500.379470141196
 30
0.0
 40
157.0
 50
293.6584797924085
 51
294.375796342163
  0
ARC
  5
656
  8
0
 10
1750.422150416725
 20
1500.379470141196
 30
0.0
 40
157.0
 50
296.4037037498741
 51
297.0528382623572
  0
ARC
  5
657
  8
0
 10
1750.422150416725
 20
1500.379470141196
 30
0.0
 40
157.0
 50
298.8192571393478
 51
299.4192101801318
  0
ARC
  5
658
  8
0
 10
1750.422150416725
 20
1500.379470141196
 30
0.0
 40
157.0
 50
301.1435639841315
 51
301.7035491945227
  0
ARC
  5
659
  8
0
 10
1750.422150416725
 20
1500.379470141196
 30
0.0
 40
157.0
 50
303.2448123542975
 51
303.7736463141632
  0
ARC
  5
65A
  8
0
 10
1750.422150416725
 20
1500.379470141196
 30
0.0
 40
157.0
 50
305.3286868743234
 51
305.8304698387129
  0
ARC
  5
65B
  8
0
 10
1750.422150416725
 20
1500.379470141196
 30
0.0
 40
157.0
 50
307.2002880431046
 51
307.6805259319639
  0
ARC
  5
65C
  8
0
 10
1750.422150416725
 20
1500.379470141196
 30
0.0
 40
157.0
 50
309.1006503287336
 51
309.5612912717428
  0
ARC
  5
65D
  8
0
 10
1750.422150416725
 20
1500.379470141196
 30
0.0
 40
157.0
 50
310.8242913039331
 51
311.2688869778041
  0
ARC
  5
65E
  8
0
 10
1750.422150416725
 20
1500.379470141196
 30
0.0
 40
157.0
 50
312.5887200118863
 51
313.0183879527156
  0
ARC
  5
65F
  8
0
 10
1750.422150416725
 20
1500.379470141196
 30
0.0
 40
157.0
 50
314.2001284971357
 51
314.6173408977697
  0
ARC
  5
660
  8
0
 10
1750.422150416725
 20
1500.379470141196
 30
0.0
 40
157.0
 50
315.8594059525242
 51
316.2648449604733
  0
ARC
  5
661
  8
0
 10
1750.422150416725
 20
1500.379470141196
 30
0.0
 40
157.0
 50
317.38254977123
 51
317.7780311663439
  0
ARC
  5
662
  8
0
 10
1750.422150416725
 20
1500.379470141196
 30
0.0
 40
157.0
 50
318.7941672663418
 51
319.1810821966848
  0
ARC
  5
663
  8
0
 10
1750.422150416725
 20
1500.379470141196
 30
0.0
 40
157.0
 50
320.4098728905457
 51
320.7876986225094
  0
ARC
  5
664
  8
0
 10
1750.422150416725
 20
1500.379470141196
 30
0.0
 40
157.0
 50
321.7599810747779
 51
322.130751803912
  0
ARC
  5
665
  8
0
 10
1750.422150416725
 20
1500.379470141196
 30
0.0
 40
157.0
 50
323.3103242875309
 51
323.6734371357196
  0
ARC
  5
666
  8
0
 10
1750.422150416725
 20
1500.379470141196
 30
0.0
 40
157.0
 50
324.6093448601587
 51
324.9666824489206
  0
ARC
  5
667
  8
0
 10
1750.422150416725
 20
1500.379470141196
 30
0.0
 40
157.0
 50
326.1049516329234
 51
326.4559564788286
  0
ARC
  5
668
  8
0
 10
1750.422150416725
 20
1500.379470141196
 30
0.0
 40
157.0
 50
327.3613264603402
 51
327.7073604049768
  0
ARC
  5
669
  8
0
 10
1750.422150416725
 20
1500.379470141196
 30
0.0
 40
157.0
 50
327.3613264603402
 51
327.7073604049768
  0
ARC
  5
66A
  8
0
 10
1750.422150416725
 20
1500.379470141196
 30
0.0
 40
157.0
 50
328.8108877173905
 51
329.1515574612322
  0
ARC
  5
66B
  8
0
 10
1750.422150416725
 20
1500.379470141196
 30
0.0
 40
157.0
 50
330.0310646800034
 51
330.3675098736741
  0
ARC
  5
66C
  8
0
 10
1750.422150416725
 20
1500.379470141196
 30
0.0
 40
157.0
 50
330.0310646800034
 51
330.3675098736741
  0
ARC
  5
66D
  8
0
 10
1750.422150416725
 20
1500.379470141196
 30
0.0
 40
157.0
 50
331.4415168435492
 51
331.7733912995267
  0
ARC
  5
66E
  8
0
 10
1750.422150416725
 20
1500.379470141196
 30
0.0
 40
157.0
 50
332.6308642701201
 51
332.9591318007573
  0
ARC
  5
66F
  8
0
 10
1750.422150416725
 20
1500.379470141196
 30
0.0
 40
157.0
 50
334.0079377521797
 51
334.3322973934174
  0
ARC
  5
670
  8
0
 10
1750.422150416725
 20
1500.379470141196
 30
0.0
 40
157.0
 50
335.170933491403
 51
335.4922068477393
  0
ARC
  5
671
  8
0
 10
1750.422150416725
 20
1500.379470141196
 30
0.0
 40
157.0
 50
336.5194517620901
 51
336.8373808113677
  0
ARC
  5
672
  8
0
 10
1750.422150416725
 20
1500.379470141196
 30
0.0
 40
157.0
 50
337.6598979623072
 51
337.9751870849409
  0
ARC
  5
673
  8
0
 10
1750.422150416725
 20
1500.379470141196
 30
0.0
 40
157.0
 50
338.9839908585418
 51
339.2964227134326
  0
ARC
  5
674
  8
0
 10
1750.422150416725
 20
1500.379470141196
 30
0.0
 40
157.0
 50
340.1051692717455
 51
340.4153499440945
  0
ARC
  5
675
  8
0
 10
1750.422150416725
 20
1500.379470141196
 30
0.0
 40
157.0
 50
341.4084292350948
 51
341.7161800236349
  0
ARC
  5
676
  8
0
 10
1750.422150416725
 20
1500.379470141196
 30
0.0
 40
157.0
 50
342.6160427340737
 51
342.9217154195487
  0
ARC
  5
677
  8
0
 10
1750.422150416725
 20
1500.379470141196
 30
0.0
 40
157.0
 50
343.798815714398
 51
344.1026096766256
  0
ARC
  5
678
  8
0
 10
1750.422150416725
 20
1500.379470141196
 30
0.0
 40
157.0
 50
344.9913613579478
 51
345.2934135117483
  0
ARC
  5
679
  8
0
 10
1750.422150416725
 20
1500.379470141196
 30
0.0
 40
157.0
 50
346.1605512180911
 51
346.4610403451035
  0
ARC
  5
67A
  8
0
 10
1750.422150416725
 20
1500.379470141196
 30
0.0
 40
157.0
 50
347.3405484173766
 51
347.6396017397911
  0
ARC
  5
67B
  8
0
 10
1750.422150416725
 20
1500.379470141196
 30
0.0
 40
157.0
 50
348.4985273736546
 51
348.7963069497936
  0
ARC
  5
67C
  8
0
 10
1750.422150416725
 20
1500.379470141196
 30
0.0
 40
157.0
 50
349.6682824187734
 51
349.9649085549222
  0
ARC
  5
67D
  8
0
 10
1750.422150416725
 20
1500.379470141196
 30
0.0
 40
157.0
 50
350.8172372705499
 51
351.1128584638328
  0
ARC
  5
67E
  8
0
 10
1750.422150416725
 20
1500.379470141196
 30
0.0
 40
157.0
 50
351.9788911011086
 51
352.2736230705733
  0
ARC
  5
67F
  8
0
 10
1750.422150416725
 20
1500.379470141196
 30
0.0
 40
157.0
 50
353.1208661126689
 51
353.4148464322843
  0
ARC
  5
680
  8
0
 10
1750.422150416725
 20
1500.379470141196
 30
0.0
 40
157.0
 50
354.2764341898558
 51
354.5697760088748
  0
ARC
  5
681
  8
0
 10
1750.422150416725
 20
1500.379470141196
 30
0.0
 40
157.0
 50
355.4133673742193
 51
355.7061995986392
  0
ARC
  5
682
  8
0
 10
1750.422150416725
 20
1500.379470141196
 30
0.0
 40
157.0
 50
356.5647739068607
 51
356.8572089273221
  0
POLYLINE
  5
683
  8
0
 66
     1
 10
0.0
 20
0.0
 30
0.0
 70
     1
  0
VERTEX
  5
D43
  8
0
 10
1784.741812654595
 20
1453.545917926847
 30
0.0
  0
VERTEX
  5
D44
  8
0
 10
1784.741812654595
 20
1454.345917926848
 30
0.0
  0
VERTEX
  5
D45
  8
0
 10
1824.741812654595
 20
1454.345917926848
 30
0.0
  0
VERTEX
  5
D46
  8
0
 10
1824.741812654595
 20
1453.545917926847
 30
0.0
  0
SEQEND
  5
146D
  8
0
  0
POLYLINE
  5
684
  8
0
 66
     1
 10
0.0
 20
0.0
 30
0.0
 70
     1
  0
VERTEX
  5
D47
  8
0
 10
1784.741812654595
 20
1459.795917926847
 30
0.0
  0
VERTEX
  5
D48
  8
0
 10
1784.741812654595
 20
1460.595917926848
 30
0.0
  0
VERTEX
  5
D49
  8
0
 10
1824.741812654595
 20
1460.595917926848
 30
0.0
  0
VERTEX
  5
D4A
  8
0
 10
1824.741812654595
 20
1459.795917926847
 30
0.0
  0
SEQEND
  5
146E
  8
0
  0
POLYLINE
  5
685
  8
0
 66
     1
 10
0.0
 20
0.0
 30
0.0
 70
     1
  0
VERTEX
  5
D4B
  8
0
 10
1784.741812654595
 20
1466.045917926847
 30
0.0
  0
VERTEX
  5
D4C
  8
0
 10
1784.741812654595
 20
1466.845917926848
 30
0.0
  0
VERTEX
  5
D4D
  8
0
 10
1824.741812654595
 20
1466.845917926848
 30
0.0
  0
VERTEX
  5
D4E
  8
0
 10
1824.741812654595
 20
1466.045917926847
 30
0.0
  0
SEQEND
  5
146F
  8
0
  0
POLYLINE
  5
686
  8
0
 66
     1
 10
0.0
 20
0.0
 30
0.0
 70
     1
  0
VERTEX
  5
D4F
  8
0
 10
1784.741812654595
 20
1472.295917926847
 30
0.0
  0
VERTEX
  5
D50
  8
0
 10
1784.741812654595
 20
1473.095917926848
 30
0.0
  0
VERTEX
  5
D51
  8
0
 10
1824.741812654595
 20
1473.095917926848
 30
0.0
  0
VERTEX
  5
D52
  8
0
 10
1824.741812654595
 20
1472.295917926847
 30
0.0
  0
SEQEND
  5
1470
  8
0
  0
POLYLINE
  5
687
  8
0
 66
     1
 10
0.0
 20
0.0
 30
0.0
 70
     1
  0
VERTEX
  5
D53
  8
0
 10
1784.741812654595
 20
1478.545917926847
 30
0.0
  0
VERTEX
  5
D54
  8
0
 10
1784.741812654595
 20
1479.345917926848
 30
0.0
  0
VERTEX
  5
D55
  8
0
 10
1824.741812654595
 20
1479.345917926848
 30
0.0
  0
VERTEX
  5
D56
  8
0
 10
1824.741812654595
 20
1478.545917926847
 30
0.0
  0
SEQEND
  5
1471
  8
0
  0
POLYLINE
  5
688
  8
0
 66
     1
 10
0.0
 20
0.0
 30
0.0
 70
     1
  0
VERTEX
  5
D57
  8
0
 10
1784.741812654595
 20
1484.795917926847
 30
0.0
  0
VERTEX
  5
D58
  8
0
 10
1784.741812654595
 20
1485.595917926848
 30
0.0
  0
VERTEX
  5
D59
  8
0
 10
1824.741812654595
 20
1485.595917926848
 30
0.0
  0
VERTEX
  5
D5A
  8
0
 10
1824.741812654595
 20
1484.795917926847
 30
0.0
  0
SEQEND
  5
1472
  8
0
  0
POLYLINE
  5
689
  8
0
 66
     1
 10
0.0
 20
0.0
 30
0.0
 70
     1
  0
VERTEX
  5
D5B
  8
0
 10
1784.741812654595
 20
1491.045917926847
 30
0.0
  0
VERTEX
  5
D5C
  8
0
 10
1784.741812654595
 20
1491.845917926848
 30
0.0
  0
VERTEX
  5
D5D
  8
0
 10
1824.741812654595
 20
1491.845917926848
 30
0.0
  0
VERTEX
  5
D5E
  8
0
 10
1824.741812654595
 20
1491.045917926847
 30
0.0
  0
SEQEND
  5
1473
  8
0
  0
POLYLINE
  5
68A
  8
0
 66
     1
 10
0.0
 20
0.0
 30
0.0
 70
     1
  0
VERTEX
  5
D5F
  8
0
 10
1837.684811106447
 20
1453.472015781535
 30
0.0
  0
VERTEX
  5
D60
  8
0
 10
1837.684811106447
 20
1454.272015781536
 30
0.0
  0
VERTEX
  5
D61
  8
0
 10
1877.684811106447
 20
1454.272015781536
 30
0.0
  0
VERTEX
  5
D62
  8
0
 10
1877.684811106447
 20
1453.472015781535
 30
0.0
  0
SEQEND
  5
1474
  8
0
  0
POLYLINE
  5
68B
  8
0
 66
     1
 10
0.0
 20
0.0
 30
0.0
 70
     1
  0
VERTEX
  5
D63
  8
0
 10
1837.684811106447
 20
1459.722015781535
 30
0.0
  0
VERTEX
  5
D64
  8
0
 10
1837.684811106447
 20
1460.522015781536
 30
0.0
  0
VERTEX
  5
D65
  8
0
 10
1877.684811106447
 20
1460.522015781536
 30
0.0
  0
VERTEX
  5
D66
  8
0
 10
1877.684811106447
 20
1459.722015781535
 30
0.0
  0
SEQEND
  5
1475
  8
0
  0
POLYLINE
  5
68C
  8
0
 66
     1
 10
0.0
 20
0.0
 30
0.0
 70
     1
  0
VERTEX
  5
D67
  8
0
 10
1837.684811106447
 20
1465.972015781535
 30
0.0
  0
VERTEX
  5
D68
  8
0
 10
1837.684811106447
 20
1466.772015781536
 30
0.0
  0
VERTEX
  5
D69
  8
0
 10
1877.684811106447
 20
1466.772015781536
 30
0.0
  0
VERTEX
  5
D6A
  8
0
 10
1877.684811106447
 20
1465.972015781535
 30
0.0
  0
SEQEND
  5
1476
  8
0
  0
POLYLINE
  5
68D
  8
0
 66
     1
 10
0.0
 20
0.0
 30
0.0
 70
     1
  0
VERTEX
  5
D6B
  8
0
 10
1837.684811106447
 20
1472.222015781535
 30
0.0
  0
VERTEX
  5
D6C
  8
0
 10
1837.684811106447
 20
1473.022015781536
 30
0.0
  0
VERTEX
  5
D6D
  8
0
 10
1877.684811106447
 20
1473.022015781536
 30
0.0
  0
VERTEX
  5
D6E
  8
0
 10
1877.684811106447
 20
1472.222015781535
 30
0.0
  0
SEQEND
  5
1477
  8
0
  0
POLYLINE
  5
68E
  8
0
 66
     1
 10
0.0
 20
0.0
 30
0.0
 70
     1
  0
VERTEX
  5
D6F
  8
0
 10
1837.684811106447
 20
1478.472015781535
 30
0.0
  0
VERTEX
  5
D70
  8
0
 10
1837.684811106447
 20
1479.272015781536
 30
0.0
  0
VERTEX
  5
D71
  8
0
 10
1877.684811106447
 20
1479.272015781536
 30
0.0
  0
VERTEX
  5
D72
  8
0
 10
1877.684811106447
 20
1478.472015781535
 30
0.0
  0
SEQEND
  5
1478
  8
0
  0
POLYLINE
  5
68F
  8
0
 66
     1
 10
0.0
 20
0.0
 30
0.0
 70
     1
  0
VERTEX
  5
D73
  8
0
 10
1837.684811106447
 20
1484.722015781535
 30
0.0
  0
VERTEX
  5
D74
  8
0
 10
1837.684811106447
 20
1485.522015781536
 30
0.0
  0
VERTEX
  5
D75
  8
0
 10
1877.684811106447
 20
1485.522015781536
 30
0.0
  0
VERTEX
  5
D76
  8
0
 10
1877.684811106447
 20
1484.722015781535
 30
0.0
  0
SEQEND
  5
1479
  8
0
  0
POLYLINE
  5
690
  8
0
 66
     1
 10
0.0
 20
0.0
 30
0.0
 70
     1
  0
VERTEX
  5
D77
  8
0
 10
1837.684811106447
 20
1490.972015781535
 30
0.0
  0
VERTEX
  5
D78
  8
0
 10
1837.684811106447
 20
1491.772015781536
 30
0.0
  0
VERTEX
  5
D79
  8
0
 10
1877.684811106447
 20
1491.772015781536
 30
0.0
  0
VERTEX
  5
D7A
  8
0
 10
1877.684811106447
 20
1490.972015781535
 30
0.0
  0
SEQEND
  5
147A
  8
0
  0
POLYLINE
  5
691
  8
0
 66
     1
 10
0.0
 20
0.0
 30
0.0
  0
VERTEX
  5
D7B
  8
0
 10
1805.897793937946
 20
1353.507236632249
 30
0.0
  0
VERTEX
  5
D7C
  8
0
 10
1784.741812654595
 20
1353.507236632249
 30
0.0
  0
VERTEX
  5
D7D
  8
0
 10
1784.741812654595
 20
1354.307236632249
 30
0.0
  0
VERTEX
  5
D7E
  8
0
 10
1807.971282449344
 20
1354.307236632249
 30
0.0
  0
SEQEND
  5
147B
  8
0
  0
POLYLINE
  5
692
  8
0
 66
     1
 10
0.0
 20
0.0
 30
0.0
  0
VERTEX
  5
D7F
  8
0
 10
1820.238963885655
 20
1359.757236632249
 30
0.0
  0
VERTEX
  5
D80
  8
0
 10
1784.741812654595
 20
1359.757236632249
 30
0.0
  0
VERTEX
  5
D81
  8
0
 10
1784.741812654595
 20
1360.557236632249
 30
0.0
  0
VERTEX
  5
D82
  8
0
 10
1821.827633515502
 20
1360.557236632249
 30
0.0
  0
SEQEND
  5
147C
  8
0
  0
POLYLINE
  5
693
  8
0
 66
     1
 10
0.0
 20
0.0
 30
0.0
  0
VERTEX
  5
D83
  8
0
 10
1831.620074416155
 20
1366.007236632249
 30
0.0
  0
VERTEX
  5
D84
  8
0
 10
1784.741812654595
 20
1366.007236632249
 30
0.0
  0
VERTEX
  5
D85
  8
0
 10
1784.741812654595
 20
1366.807236632249
 30
0.0
  0
VERTEX
  5
D86
  8
0
 10
1832.929473942771
 20
1366.807236632249
 30
0.0
  0
SEQEND
  5
147D
  8
0
  0
POLYLINE
  5
694
  8
0
 66
     1
 10
0.0
 20
0.0
 30
0.0
 70
     1
  0
VERTEX
  5
D87
  8
0
 10
1784.741812654595
 20
1372.257236632249
 30
0.0
  0
VERTEX
  5
D88
  8
0
 10
1784.741812654595
 20
1373.057236632249
 30
0.0
  0
VERTEX
  5
D89
  8
0
 10
1824.741812654595
 20
1373.057236632249
 30
0.0
  0
VERTEX
  5
D8A
  8
0
 10
1824.741812654595
 20
1372.257236632249
 30
0.0
  0
SEQEND
  5
147E
  8
0
  0
POLYLINE
  5
695
  8
0
 66
     1
 10
0.0
 20
0.0
 30
0.0
 70
     1
  0
VERTEX
  5
D8B
  8
0
 10
1784.741812654595
 20
1378.507236632249
 30
0.0
  0
VERTEX
  5
D8C
  8
0
 10
1784.741812654595
 20
1379.307236632249
 30
0.0
  0
VERTEX
  5
D8D
  8
0
 10
1824.741812654595
 20
1379.307236632249
 30
0.0
  0
VERTEX
  5
D8E
  8
0
 10
1824.741812654595
 20
1378.507236632249
 30
0.0
  0
SEQEND
  5
147F
  8
0
  0
POLYLINE
  5
696
  8
0
 66
     1
 10
0.0
 20
0.0
 30
0.0
 70
     1
  0
VERTEX
  5
D8F
  8
0
 10
1784.741812654595
 20
1384.757236632249
 30
0.0
  0
VERTEX
  5
D90
  8
0
 10
1784.741812654595
 20
1385.557236632249
 30
0.0
  0
VERTEX
  5
D91
  8
0
 10
1824.741812654595
 20
1385.557236632249
 30
0.0
  0
VERTEX
  5
D92
  8
0
 10
1824.741812654595
 20
1384.757236632249
 30
0.0
  0
SEQEND
  5
1480
  8
0
  0
POLYLINE
  5
697
  8
0
 66
     1
 10
0.0
 20
0.0
 30
0.0
 70
     1
  0
VERTEX
  5
D93
  8
0
 10
1784.741812654595
 20
1391.007236632249
 30
0.0
  0
VERTEX
  5
D94
  8
0
 10
1784.741812654595
 20
1391.807236632249
 30
0.0
  0
VERTEX
  5
D95
  8
0
 10
1824.741812654595
 20
1391.807236632249
 30
0.0
  0
VERTEX
  5
D96
  8
0
 10
1824.741812654595
 20
1391.007236632249
 30
0.0
  0
SEQEND
  5
1481
  8
0
  0
POLYLINE
  5
698
  8
0
 66
     1
 10
0.0
 20
0.0
 30
0.0
  0
VERTEX
  5
D97
  8
0
 10
1841.209940054999
 20
1372.291308109739
 30
0.0
  0
VERTEX
  5
D98
  8
0
 10
1837.532911610413
 20
1372.291308109739
 30
0.0
  0
VERTEX
  5
D99
  8
0
 10
1837.532911610413
 20
1373.09130810974
 30
0.0
  0
VERTEX
  5
D9A
  8
0
 10
1842.328210100806
 20
1373.09130810974
 30
0.0
  0
SEQEND
  5
1482
  8
0
  0
POLYLINE
  5
699
  8
0
 66
     1
 10
0.0
 20
0.0
 30
0.0
  0
VERTEX
  5
D9B
  8
0
 10
1849.43963509896
 20
1378.541308109739
 30
0.0
  0
VERTEX
  5
D9C
  8
0
 10
1837.532911610413
 20
1378.541308109739
 30
0.0
  0
VERTEX
  5
D9D
  8
0
 10
1837.532911610413
 20
1379.34130810974
 30
0.0
  0
VERTEX
  5
D9E
  8
0
 10
1850.41596688578
 20
1379.34130810974
 30
0.0
  0
SEQEND
  5
1483
  8
0
  0
POLYLINE
  5
69A
  8
0
 66
     1
 10
0.0
 20
0.0
 30
0.0
  0
VERTEX
  5
D9F
  8
0
 10
1856.668923535676
 20
1384.791308109739
 30
0.0
  0
VERTEX
  5
DA0
  8
0
 10
1837.532911610413
 20
1384.791308109739
 30
0.0
  0
VERTEX
  5
DA1
  8
0
 10
1837.532911610413
 20
1385.59130810974
 30
0.0
  0
VERTEX
  5
DA2
  8
0
 10
1857.532737463199
 20
1385.59130810974
 30
0.0
  0
SEQEND
  5
1484
  8
0
  0
POLYLINE
  5
69B
  8
0
 66
     1
 10
0.0
 20
0.0
 30
0.0
  0
VERTEX
  5
DA3
  8
0
 10
1863.090541385901
 20
1391.041308109739
 30
0.0
  0
VERTEX
  5
DA4
  8
0
 10
1837.532911610413
 20
1391.041308109739
 30
0.0
  0
VERTEX
  5
DA5
  8
0
 10
1837.532911610413
 20
1391.84130810974
 30
0.0
  0
VERTEX
  5
DA6
  8
0
 10
1863.861417792857
 20
1391.84130810974
 30
0.0
  0
SEQEND
  5
1485
  8
0
  0
POLYLINE
  5
69C
  8
0
 66
     1
 10
0.0
 20
0.0
 30
0.0
  0
VERTEX
  5
DA7
  8
0
 10
1892.909788072368
 20
1434.453199843883
 30
0.0
  0
VERTEX
  5
DA8
  8
0
 10
1887.6306518468
 20
1434.453199843883
 30
0.0
  0
VERTEX
  5
DA9
  8
0
 10
1887.6306518468
 20
1435.253199843884
 30
0.0
  0
VERTEX
  5
DAA
  8
0
 10
1893.277213040216
 20
1435.253199843884
 30
0.0
  0
SEQEND
  5
1486
  8
0
  0
POLYLINE
  5
69D
  8
0
 66
     1
 10
0.0
 20
0.0
 30
0.0
  0
VERTEX
  5
DAB
  8
0
 10
1895.638343602617
 20
1440.703199843883
 30
0.0
  0
VERTEX
  5
DAC
  8
0
 10
1887.6306518468
 20
1440.703199843883
 30
0.0
  0
VERTEX
  5
DAD
  8
0
 10
1887.6306518468
 20
1441.503199843884
 30
0.0
  0
VERTEX
  5
DAE
  8
0
 10
1895.964531858963
 20
1441.503199843884
 30
0.0
  0
SEQEND
  5
1487
  8
0
  0
POLYLINE
  5
69E
  8
0
 66
     1
 10
0.0
 20
0.0
 30
0.0
  0
VERTEX
  5
DAF
  8
0
 10
1898.052207119683
 20
1446.953199843883
 30
0.0
  0
VERTEX
  5
DB0
  8
0
 10
1887.6306518468
 20
1446.953199843883
 30
0.0
  0
VERTEX
  5
DB1
  8
0
 10
1887.6306518468
 20
1447.753199843884
 30
0.0
  0
VERTEX
  5
DB2
  8
0
 10
1898.339274762064
 20
1447.753199843884
 30
0.0
  0
SEQEND
  5
1488
  8
0
  0
POLYLINE
  5
69F
  8
0
 66
     1
 10
0.0
 20
0.0
 30
0.0
  0
VERTEX
  5
DB3
  8
0
 10
1900.251021885132
 20
1453.472015781535
 30
0.0
  0
VERTEX
  5
DB4
  8
0
 10
1887.684811106447
 20
1453.472015781535
 30
0.0
  0
VERTEX
  5
DB5
  8
0
 10
1887.684811106447
 20
1454.272015781536
 30
0.0
  0
VERTEX
  5
DB6
  8
0
 10
1900.499139500568
 20
1454.272015781536
 30
0.0
  0
SEQEND
  5
1489
  8
0
  0
POLYLINE
  5
6A0
  8
0
 66
     1
 10
0.0
 20
0.0
 30
0.0
  0
VERTEX
  5
DB7
  8
0
 10
1902.066376831687
 20
1459.722015781535
 30
0.0
  0
VERTEX
  5
DB8
  8
0
 10
1887.684811106447
 20
1459.722015781535
 30
0.0
  0
VERTEX
  5
DB9
  8
0
 10
1887.684811106447
 20
1460.522015781536
 30
0.0
  0
VERTEX
  5
DBA
  8
0
 10
1902.27860675615
 20
1460.522015781536
 30
0.0
  0
SEQEND
  5
148A
  8
0
  0
POLYLINE
  5
6A1
  8
0
 66
     1
 10
0.0
 20
0.0
 30
0.0
  0
VERTEX
  5
DBB
  8
0
 10
1903.60546244675
 20
1465.972015781535
 30
0.0
  0
VERTEX
  5
DBC
  8
0
 10
1887.684811106447
 20
1465.972015781535
 30
0.0
  0
VERTEX
  5
DBD
  8
0
 10
1887.684811106447
 20
1466.772015781536
 30
0.0
  0
VERTEX
  5
DBE
  8
0
 10
1903.782963571402
 20
1466.772015781536
 30
0.0
  0
SEQEND
  5
148B
  8
0
  0
POLYLINE
  5
6A2
  8
0
 66
     1
 10
0.0
 20
0.0
 30
0.0
  0
VERTEX
  5
DBF
  8
0
 10
1904.876537741863
 20
1472.222015781535
 30
0.0
  0
VERTEX
  5
DC0
  8
0
 10
1887.684811106447
 20
1472.222015781535
 30
0.0
  0
VERTEX
  5
DC1
  8
0
 10
1887.684811106447
 20
1473.022015781536
 30
0.0
  0
VERTEX
  5
DC2
  8
0
 10
1905.020241255387
 20
1473.022015781536
 30
0.0
  0
SEQEND
  5
148C
  8
0
  0
POLYLINE
  5
6A3
  8
0
 66
     1
 10
0.0
 20
0.0
 30
0.0
  0
VERTEX
  5
DC3
  8
0
 10
1905.886176620473
 20
1478.472015781535
 30
0.0
  0
VERTEX
  5
DC4
  8
0
 10
1887.684811106447
 20
1478.472015781535
 30
0.0
  0
VERTEX
  5
DC5
  8
0
 10
1887.684811106447
 20
1479.272015781536
 30
0.0
  0
VERTEX
  5
DC6
  8
0
 10
1905.996812140462
 20
1479.272015781536
 30
0.0
  0
SEQEND
  5
148D
  8
0
  0
POLYLINE
  5
6A4
  8
0
 66
     1
 10
0.0
 20
0.0
 30
0.0
  0
VERTEX
  5
DC7
  8
0
 10
1906.639448188052
 20
1484.722015781535
 30
0.0
  0
VERTEX
  5
DC8
  8
0
 10
1887.684811106447
 20
1484.722015781535
 30
0.0
  0
VERTEX
  5
DC9
  8
0
 10
1887.684811106447
 20
1485.522015781536
 30
0.0
  0
VERTEX
  5
DCA
  8
0
 10
1906.717563177147
 20
1485.522015781536
 30
0.0
  0
SEQEND
  5
148E
  8
0
  0
POLYLINE
  5
6A5
  8
0
 66
     1
 10
0.0
 20
0.0
 30
0.0
  0
VERTEX
  5
DCB
  8
0
 10
1907.140049210931
 20
1490.972015781535
 30
0.0
  0
VERTEX
  5
DCC
  8
0
 10
1887.684811106447
 20
1490.972015781535
 30
0.0
  0
VERTEX
  5
DCD
  8
0
 10
1887.684811106447
 20
1491.772015781536
 30
0.0
  0
VERTEX
  5
DCE
  8
0
 10
1907.186022943039
 20
1491.772015781536
 30
0.0
  0
SEQEND
  5
148F
  8
0
  0
POLYLINE
  5
6A6
  8
0
 66
     1
 10
0.0
 20
0.0
 30
0.0
  0
VERTEX
  5
DCF
  8
0
 10
1755.272965387081
 20
1397.94158450265
 30
0.0
  0
VERTEX
  5
DD0
  8
0
 10
1774.741812654595
 20
1397.94158450265
 30
0.0
  0
VERTEX
  5
DD1
  8
0
 10
1774.741812654595
 20
1397.14158450265
 30
0.0
  0
VERTEX
  5
DD2
  8
0
 10
1755.272965387081
 20
1397.14158450265
 30
0.0
  0
SEQEND
  5
1490
  8
0
  0
POLYLINE
  5
6A7
  8
0
 66
     1
 10
0.0
 20
0.0
 30
0.0
  0
VERTEX
  5
DD3
  8
0
 10
1755.272965387081
 20
1404.19158450265
 30
0.0
  0
VERTEX
  5
DD4
  8
0
 10
1774.741812654595
 20
1404.19158450265
 30
0.0
  0
VERTEX
  5
DD5
  8
0
 10
1774.741812654595
 20
1403.39158450265
 30
0.0
  0
VERTEX
  5
DD6
  8
0
 10
1755.272965387081
 20
1403.39158450265
 30
0.0
  0
SEQEND
  5
1491
  8
0
  0
POLYLINE
  5
6A8
  8
0
 66
     1
 10
0.0
 20
0.0
 30
0.0
  0
VERTEX
  5
DD7
  8
0
 10
1755.272965387081
 20
1410.44158450265
 30
0.0
  0
VERTEX
  5
DD8
  8
0
 10
1774.741812654595
 20
1410.44158450265
 30
0.0
  0
VERTEX
  5
DD9
  8
0
 10
1774.741812654595
 20
1409.64158450265
 30
0.0
  0
VERTEX
  5
DDA
  8
0
 10
1755.272965387081
 20
1409.64158450265
 30
0.0
  0
SEQEND
  5
1492
  8
0
  0
POLYLINE
  5
6A9
  8
0
 66
     1
 10
0.0
 20
0.0
 30
0.0
  0
VERTEX
  5
DDB
  8
0
 10
1755.272965387081
 20
1416.69158450265
 30
0.0
  0
VERTEX
  5
DDC
  8
0
 10
1774.741812654595
 20
1416.69158450265
 30
0.0
  0
VERTEX
  5
DDD
  8
0
 10
1774.741812654595
 20
1415.89158450265
 30
0.0
  0
VERTEX
  5
DDE
  8
0
 10
1755.272965387081
 20
1415.89158450265
 30
0.0
  0
SEQEND
  5
1493
  8
0
  0
POLYLINE
  5
6AA
  8
0
 66
     1
 10
0.0
 20
0.0
 30
0.0
  0
VERTEX
  5
DDF
  8
0
 10
1755.272965387081
 20
1422.94158450265
 30
0.0
  0
VERTEX
  5
DE0
  8
0
 10
1774.741812654595
 20
1422.94158450265
 30
0.0
  0
VERTEX
  5
DE1
  8
0
 10
1774.741812654595
 20
1422.14158450265
 30
0.0
  0
VERTEX
  5
DE2
  8
0
 10
1755.272965387081
 20
1422.14158450265
 30
0.0
  0
SEQEND
  5
1494
  8
0
  0
POLYLINE
  5
6AB
  8
0
 66
     1
 10
0.0
 20
0.0
 30
0.0
  0
VERTEX
  5
DE3
  8
0
 10
1755.272965387081
 20
1429.19158450265
 30
0.0
  0
VERTEX
  5
DE4
  8
0
 10
1774.741812654595
 20
1429.19158450265
 30
0.0
  0
VERTEX
  5
DE5
  8
0
 10
1774.741812654595
 20
1428.39158450265
 30
0.0
  0
VERTEX
  5
DE6
  8
0
 10
1755.272965387081
 20
1428.39158450265
 30
0.0
  0
SEQEND
  5
1495
  8
0
  0
POLYLINE
  5
6AC
  8
0
 66
     1
 10
0.0
 20
0.0
 30
0.0
  0
VERTEX
  5
DE7
  8
0
 10
1755.272965387081
 20
1435.44158450265
 30
0.0
  0
VERTEX
  5
DE8
  8
0
 10
1774.741812654595
 20
1435.44158450265
 30
0.0
  0
VERTEX
  5
DE9
  8
0
 10
1774.741812654595
 20
1434.64158450265
 30
0.0
  0
VERTEX
  5
DEA
  8
0
 10
1755.272965387081
 20
1434.64158450265
 30
0.0
  0
SEQEND
  5
1496
  8
0
  0
POLYLINE
  5
6AD
  8
0
 66
     1
 10
0.0
 20
0.0
 30
0.0
  0
VERTEX
  5
DEB
  8
0
 10
1755.272965387081
 20
1441.69158450265
 30
0.0
  0
VERTEX
  5
DEC
  8
0
 10
1774.741812654595
 20
1441.69158450265
 30
0.0
  0
VERTEX
  5
DED
  8
0
 10
1774.741812654595
 20
1440.89158450265
 30
0.0
  0
VERTEX
  5
DEE
  8
0
 10
1755.272965387081
 20
1440.89158450265
 30
0.0
  0
SEQEND
  5
1497
  8
0
  0
POLYLINE
  5
6AE
  8
0
 66
     1
 10
0.0
 20
0.0
 30
0.0
  0
VERTEX
  5
DEF
  8
0
 10
1755.272965387081
 20
1447.94158450265
 30
0.0
  0
VERTEX
  5
DF0
  8
0
 10
1774.741812654595
 20
1447.94158450265
 30
0.0
  0
VERTEX
  5
DF1
  8
0
 10
1774.741812654595
 20
1447.14158450265
 30
0.0
  0
VERTEX
  5
DF2
  8
0
 10
1755.272965387081
 20
1447.14158450265
 30
0.0
  0
SEQEND
  5
1498
  8
0
  0
POLYLINE
  5
6AF
  8
0
 66
     1
 10
0.0
 20
0.0
 30
0.0
  0
VERTEX
  5
DF3
  8
0
 10
1755.272965387081
 20
1454.345917926848
 30
0.0
  0
VERTEX
  5
DF4
  8
0
 10
1774.741812654595
 20
1454.345917926848
 30
0.0
  0
VERTEX
  5
DF5
  8
0
 10
1774.741812654595
 20
1453.545917926847
 30
0.0
  0
VERTEX
  5
DF6
  8
0
 10
1755.272965387081
 20
1453.545917926847
 30
0.0
  0
SEQEND
  5
1499
  8
0
  0
POLYLINE
  5
6B0
  8
0
 66
     1
 10
0.0
 20
0.0
 30
0.0
  0
VERTEX
  5
DF7
  8
0
 10
1755.272965387081
 20
1460.595917926848
 30
0.0
  0
VERTEX
  5
DF8
  8
0
 10
1774.741812654595
 20
1460.595917926848
 30
0.0
  0
VERTEX
  5
DF9
  8
0
 10
1774.741812654595
 20
1459.795917926847
 30
0.0
  0
VERTEX
  5
DFA
  8
0
 10
1755.272965387081
 20
1459.795917926847
 30
0.0
  0
SEQEND
  5
149A
  8
0
  0
POLYLINE
  5
6B1
  8
0
 66
     1
 10
0.0
 20
0.0
 30
0.0
  0
VERTEX
  5
DFB
  8
0
 10
1755.272965387081
 20
1466.845917926848
 30
0.0
  0
VERTEX
  5
DFC
  8
0
 10
1774.741812654595
 20
1466.845917926848
 30
0.0
  0
VERTEX
  5
DFD
  8
0
 10
1774.741812654595
 20
1466.045917926847
 30
0.0
  0
VERTEX
  5
DFE
  8
0
 10
1755.272965387081
 20
1466.045917926847
 30
0.0
  0
SEQEND
  5
149B
  8
0
  0
POLYLINE
  5
6B2
  8
0
 66
     1
 10
0.0
 20
0.0
 30
0.0
  0
VERTEX
  5
DFF
  8
0
 10
1755.272965387081
 20
1473.095917926848
 30
0.0
  0
VERTEX
  5
E00
  8
0
 10
1774.741812654595
 20
1473.095917926848
 30
0.0
  0
VERTEX
  5
E01
  8
0
 10
1774.741812654595
 20
1472.295917926847
 30
0.0
  0
VERTEX
  5
E02
  8
0
 10
1755.272965387081
 20
1472.295917926847
 30
0.0
  0
SEQEND
  5
149C
  8
0
  0
POLYLINE
  5
6B3
  8
0
 66
     1
 10
0.0
 20
0.0
 30
0.0
  0
VERTEX
  5
E03
  8
0
 10
1755.272965387081
 20
1479.345917926848
 30
0.0
  0
VERTEX
  5
E04
  8
0
 10
1774.741812654595
 20
1479.345917926848
 30
0.0
  0
VERTEX
  5
E05
  8
0
 10
1774.741812654595
 20
1478.545917926847
 30
0.0
  0
VERTEX
  5
E06
  8
0
 10
1755.272965387081
 20
1478.545917926847
 30
0.0
  0
SEQEND
  5
149D
  8
0
  0
POLYLINE
  5
6B4
  8
0
 66
     1
 10
0.0
 20
0.0
 30
0.0
  0
VERTEX
  5
E07
  8
0
 10
1755.272965387081
 20
1485.595917926848
 30
0.0
  0
VERTEX
  5
E08
  8
0
 10
1774.741812654595
 20
1485.595917926848
 30
0.0
  0
VERTEX
  5
E09
  8
0
 10
1774.741812654595
 20
1484.795917926847
 30
0.0
  0
VERTEX
  5
E0A
  8
0
 10
1755.272965387081
 20
1484.795917926847
 30
0.0
  0
SEQEND
  5
149E
  8
0
  0
POLYLINE
  5
6B5
  8
0
 66
     1
 10
0.0
 20
0.0
 30
0.0
  0
VERTEX
  5
E0B
  8
0
 10
1755.272965387081
 20
1491.845917926848
 30
0.0
  0
VERTEX
  5
E0C
  8
0
 10
1774.741812654595
 20
1491.845917926848
 30
0.0
  0
VERTEX
  5
E0D
  8
0
 10
1774.741812654595
 20
1491.045917926847
 30
0.0
  0
VERTEX
  5
E0E
  8
0
 10
1755.272965387081
 20
1491.045917926847
 30
0.0
  0
SEQEND
  5
149F
  8
0
  0
POLYLINE
  5
6B6
  8
0
 66
     1
 10
0.0
 20
0.0
 30
0.0
  0
VERTEX
  5
E0F
  8
0
 10
1755.272965387081
 20
1354.307236632249
 30
0.0
  0
VERTEX
  5
E10
  8
0
 10
1774.741812654595
 20
1354.307236632249
 30
0.0
  0
VERTEX
  5
E11
  8
0
 10
1774.741812654595
 20
1353.507236632249
 30
0.0
  0
VERTEX
  5
E12
  8
0
 10
1755.272965387081
 20
1353.507236632249
 30
0.0
  0
SEQEND
  5
14A0
  8
0
  0
POLYLINE
  5
6B7
  8
0
 66
     1
 10
0.0
 20
0.0
 30
0.0
  0
VERTEX
  5
E13
  8
0
 10
1755.272965387081
 20
1360.557236632249
 30
0.0
  0
VERTEX
  5
E14
  8
0
 10
1774.741812654595
 20
1360.557236632249
 30
0.0
  0
VERTEX
  5
E15
  8
0
 10
1774.741812654595
 20
1359.757236632249
 30
0.0
  0
VERTEX
  5
E16
  8
0
 10
1755.272965387081
 20
1359.757236632249
 30
0.0
  0
SEQEND
  5
14A1
  8
0
  0
POLYLINE
  5
6B8
  8
0
 66
     1
 10
0.0
 20
0.0
 30
0.0
  0
VERTEX
  5
E17
  8
0
 10
1755.665219325738
 20
1366.807236632249
 30
0.0
  0
VERTEX
  5
E18
  8
0
 10
1774.741812654595
 20
1366.807236632249
 30
0.0
  0
VERTEX
  5
E19
  8
0
 10
1774.741812654595
 20
1366.007236632249
 30
0.0
  0
VERTEX
  5
E1A
  8
0
 10
1755.272965387081
 20
1366.007236632249
 30
0.0
  0
SEQEND
  5
14A2
  8
0
  0
POLYLINE
  5
6B9
  8
0
 66
     1
 10
0.0
 20
0.0
 30
0.0
  0
VERTEX
  5
E1B
  8
0
 10
1755.743900305156
 20
1373.057236632249
 30
0.0
  0
VERTEX
  5
E1C
  8
0
 10
1774.741812654595
 20
1373.057236632249
 30
0.0
  0
VERTEX
  5
E1D
  8
0
 10
1774.741812654595
 20
1372.257236632249
 30
0.0
  0
VERTEX
  5
E1E
  8
0
 10
1756.102593521706
 20
1372.257236632249
 30
0.0
  0
SEQEND
  5
14A3
  8
0
  0
POLYLINE
  5
6BA
  8
0
 66
     1
 10
0.0
 20
0.0
 30
0.0
  0
VERTEX
  5
E1F
  8
0
 10
1755.272965387081
 20
1379.307236632249
 30
0.0
  0
VERTEX
  5
E20
  8
0
 10
1774.741812654595
 20
1379.307236632249
 30
0.0
  0
VERTEX
  5
E21
  8
0
 10
1774.741812654595
 20
1378.507236632249
 30
0.0
  0
VERTEX
  5
E22
  8
0
 10
1755.272965387081
 20
1378.507236632249
 30
0.0
  0
SEQEND
  5
14A4
  8
0
  0
POLYLINE
  5
6BB
  8
0
 66
     1
 10
0.0
 20
0.0
 30
0.0
  0
VERTEX
  5
E23
  8
0
 10
1755.272965387081
 20
1385.557236632249
 30
0.0
  0
VERTEX
  5
E24
  8
0
 10
1774.741812654595
 20
1385.557236632249
 30
0.0
  0
VERTEX
  5
E25
  8
0
 10
1774.741812654595
 20
1384.757236632249
 30
0.0
  0
VERTEX
  5
E26
  8
0
 10
1755.272965387081
 20
1384.757236632249
 30
0.0
  0
SEQEND
  5
14A5
  8
0
  0
POLYLINE
  5
6BC
  8
0
 66
     1
 10
0.0
 20
0.0
 30
0.0
  0
VERTEX
  5
E27
  8
0
 10
1755.272965387081
 20
1391.807236632249
 30
0.0
  0
VERTEX
  5
E28
  8
0
 10
1774.741812654595
 20
1391.807236632249
 30
0.0
  0
VERTEX
  5
E29
  8
0
 10
1774.741812654595
 20
1391.007236632249
 30
0.0
  0
VERTEX
  5
E2A
  8
0
 10
1755.272965387081
 20
1391.007236632249
 30
0.0
  0
SEQEND
  5
14A6
  8
0
  0
LINE
  5
6BD
  8
0
 10
1755.272965387081
 20
1344.074750214709
 30
0.0
 11
1755.272965387081
 21
1344.874750214709
 31
0.0
  0
LINE
  5
6BE
  8
0
 10
1755.272965387081
 20
1347.253082329146
 30
0.0
 11
1755.272965387081
 21
1348.053082329146
 31
0.0
  0
LINE
  5
6BF
  8
0
 10
1755.272965387081
 20
1350.324750214709
 30
0.0
 11
1755.272965387081
 21
1351.124750214709
 31
0.0
  0
LINE
  5
6C0
  8
0
 10
1755.272965387081
 20
1353.507236632249
 30
0.0
 11
1755.272965387081
 21
1354.307236632249
 31
0.0
  0
LINE
  5
6C1
  8
0
 10
1755.272965387081
 20
1356.574750214709
 30
0.0
 11
1755.272965387081
 21
1357.374750214709
 31
0.0
  0
LINE
  5
6C2
  8
0
 10
1755.272965387081
 20
1359.757236632249
 30
0.0
 11
1755.272965387081
 21
1360.557236632249
 31
0.0
  0
LINE
  5
6C3
  8
0
 10
1755.272965387081
 20
1362.824750214709
 30
0.0
 11
1755.272965387081
 21
1363.624750214709
 31
0.0
  0
LINE
  5
6C4
  8
0
 10
1755.272965387081
 20
1366.007236632249
 30
0.0
 11
1755.272965387081
 21
1366.195399030559
 31
0.0
  0
LINE
  5
6C7
  8
0
 10
1755.272965387081
 20
1375.324750214709
 30
0.0
 11
1755.272965387081
 21
1376.124750214709
 31
0.0
  0
LINE
  5
6C8
  8
0
 10
1755.272965387081
 20
1378.507236632249
 30
0.0
 11
1755.272965387081
 21
1379.307236632249
 31
0.0
  0
LINE
  5
6C9
  8
0
 10
1755.272965387081
 20
1381.574750214709
 30
0.0
 11
1755.272965387081
 21
1382.374750214709
 31
0.0
  0
LINE
  5
6CA
  8
0
 10
1755.272965387081
 20
1384.757236632249
 30
0.0
 11
1755.272965387081
 21
1385.557236632249
 31
0.0
  0
LINE
  5
6CB
  8
0
 10
1755.272965387081
 20
1387.824750214709
 30
0.0
 11
1755.272965387081
 21
1388.624750214709
 31
0.0
  0
LINE
  5
6CC
  8
0
 10
1755.272965387081
 20
1391.007236632249
 30
0.0
 11
1755.272965387081
 21
1391.807236632249
 31
0.0
  0
LINE
  5
6CD
  8
0
 10
1755.272965387081
 20
1394.074750214709
 30
0.0
 11
1755.272965387081
 21
1394.874750214709
 31
0.0
  0
LINE
  5
6CE
  8
0
 10
1755.272965387081
 20
1397.14158450265
 30
0.0
 11
1755.272965387081
 21
1397.94158450265
 31
0.0
  0
LINE
  5
6CF
  8
0
 10
1755.272965387081
 20
1400.324750214709
 30
0.0
 11
1755.272965387081
 21
1401.124750214709
 31
0.0
  0
LINE
  5
6D0
  8
0
 10
1755.272965387081
 20
1403.39158450265
 30
0.0
 11
1755.272965387081
 21
1404.19158450265
 31
0.0
  0
LINE
  5
6D1
  8
0
 10
1755.272965387081
 20
1406.574750214709
 30
0.0
 11
1755.272965387081
 21
1407.374750214709
 31
0.0
  0
LINE
  5
6D2
  8
0
 10
1755.272965387081
 20
1409.64158450265
 30
0.0
 11
1755.272965387081
 21
1410.44158450265
 31
0.0
  0
LINE
  5
6D3
  8
0
 10
1755.272965387081
 20
1412.824750214709
 30
0.0
 11
1755.272965387081
 21
1413.624750214709
 31
0.0
  0
LINE
  5
6D4
  8
0
 10
1755.272965387081
 20
1415.89158450265
 30
0.0
 11
1755.272965387081
 21
1416.69158450265
 31
0.0
  0
LINE
  5
6D5
  8
0
 10
1755.272965387081
 20
1419.074750214709
 30
0.0
 11
1755.272965387081
 21
1419.874750214709
 31
0.0
  0
LINE
  5
6D6
  8
0
 10
1755.272965387081
 20
1422.14158450265
 30
0.0
 11
1755.272965387081
 21
1422.94158450265
 31
0.0
  0
LINE
  5
6D7
  8
0
 10
1755.272965387081
 20
1425.324750214709
 30
0.0
 11
1755.272965387081
 21
1426.124750214709
 31
0.0
  0
LINE
  5
6D8
  8
0
 10
1755.272965387081
 20
1428.39158450265
 30
0.0
 11
1755.272965387081
 21
1429.19158450265
 31
0.0
  0
LINE
  5
6D9
  8
0
 10
1755.272965387081
 20
1431.574750214709
 30
0.0
 11
1755.272965387081
 21
1432.374750214709
 31
0.0
  0
LINE
  5
6DA
  8
0
 10
1755.272965387081
 20
1434.64158450265
 30
0.0
 11
1755.272965387081
 21
1435.44158450265
 31
0.0
  0
LINE
  5
6DB
  8
0
 10
1755.272965387081
 20
1437.824750214709
 30
0.0
 11
1755.272965387081
 21
1438.624750214709
 31
0.0
  0
LINE
  5
6DC
  8
0
 10
1755.272965387081
 20
1440.89158450265
 30
0.0
 11
1755.272965387081
 21
1441.69158450265
 31
0.0
  0
LINE
  5
6DD
  8
0
 10
1755.272965387081
 20
1444.074750214709
 30
0.0
 11
1755.272965387081
 21
1444.874750214709
 31
0.0
  0
LINE
  5
6DE
  8
0
 10
1755.272965387081
 20
1447.14158450265
 30
0.0
 11
1755.272965387081
 21
1447.94158450265
 31
0.0
  0
LINE
  5
6DF
  8
0
 10
1755.272965387081
 20
1450.324750214709
 30
0.0
 11
1755.272965387081
 21
1451.124750214709
 31
0.0
  0
LINE
  5
6E0
  8
0
 10
1755.272965387081
 20
1453.545917926847
 30
0.0
 11
1755.272965387081
 21
1454.345917926848
 31
0.0
  0
LINE
  5
6E1
  8
0
 10
1755.272965387081
 20
1456.574750214709
 30
0.0
 11
1755.272965387081
 21
1457.374750214709
 31
0.0
  0
LINE
  5
6E2
  8
0
 10
1755.272965387081
 20
1459.795917926847
 30
0.0
 11
1755.272965387081
 21
1460.595917926848
 31
0.0
  0
LINE
  5
6E3
  8
0
 10
1755.272965387081
 20
1462.824750214709
 30
0.0
 11
1755.272965387081
 21
1463.624750214709
 31
0.0
  0
LINE
  5
6E4
  8
0
 10
1755.272965387081
 20
1466.045917926847
 30
0.0
 11
1755.272965387081
 21
1466.845917926848
 31
0.0
  0
LINE
  5
6E5
  8
0
 10
1755.272965387081
 20
1469.074750214709
 30
0.0
 11
1755.272965387081
 21
1469.874750214709
 31
0.0
  0
LINE
  5
6E6
  8
0
 10
1755.272965387081
 20
1472.295917926847
 30
0.0
 11
1755.272965387081
 21
1473.095917926848
 31
0.0
  0
LINE
  5
6E7
  8
0
 10
1755.272965387081
 20
1475.324750214709
 30
0.0
 11
1755.272965387081
 21
1476.124750214709
 31
0.0
  0
LINE
  5
6E8
  8
0
 10
1755.272965387081
 20
1478.545917926847
 30
0.0
 11
1755.272965387081
 21
1479.345917926848
 31
0.0
  0
LINE
  5
6E9
  8
0
 10
1755.272965387081
 20
1481.574750214709
 30
0.0
 11
1755.272965387081
 21
1482.374750214709
 31
0.0
  0
LINE
  5
6EA
  8
0
 10
1755.272965387081
 20
1484.795917926847
 30
0.0
 11
1755.272965387081
 21
1485.595917926848
 31
0.0
  0
LINE
  5
6EB
  8
0
 10
1755.272965387081
 20
1487.824750214709
 30
0.0
 11
1755.272965387081
 21
1488.624750214709
 31
0.0
  0
LINE
  5
6EC
  8
0
 10
1755.272965387081
 20
1491.045917926847
 30
0.0
 11
1755.272965387081
 21
1491.845917926848
 31
0.0
  0
LINE
  5
6ED
  8
0
 10
1755.272965387081
 20
1494.074750214709
 30
0.0
 11
1755.272965387081
 21
1494.874750214709
 31
0.0
  0
POLYLINE
  5
6EE
  8
0
 66
     1
 10
0.0
 20
0.0
 30
0.0
  0
VERTEX
  5
E2B
  8
0
 10
1755.272965387081
 20
1348.053082329146
 30
0.0
  0
VERTEX
  5
E2C
  8
0
 10
1788.444138478015
 20
1348.053082329146
 30
0.0
  0
SEQEND
  5
14A7
  8
0
  0
POLYLINE
  5
6EF
  8
0
 66
     1
 10
0.0
 20
0.0
 30
0.0
  0
VERTEX
  5
E2D
  8
0
 10
1785.082060336308
 20
1347.253082329146
 30
0.0
  0
VERTEX
  5
E2E
  8
0
 10
1755.272965387081
 20
1347.253082329146
 30
0.0
  0
SEQEND
  5
14A8
  8
0
  0
POLYLINE
  5
6F0
  8
0
 66
     1
 10
0.0
 20
0.0
 30
0.0
 70
     1
  0
VERTEX
  5
E2F
  8
0
 10
1689.595751098683
 20
1599.245261261004
 30
0.0
  0
VERTEX
  5
E30
  8
0
 10
1689.595751098683
 20
1598.445261261004
 30
0.0
  0
VERTEX
  5
E31
  8
0
 10
1649.595751098683
 20
1598.445261261004
 30
0.0
  0
VERTEX
  5
E32
  8
0
 10
1649.595751098683
 20
1599.245261261004
 30
0.0
  0
SEQEND
  5
14A9
  8
0
  0
POLYLINE
  5
6F1
  8
0
 66
     1
 10
0.0
 20
0.0
 30
0.0
 70
     1
  0
VERTEX
  5
E33
  8
0
 10
1689.595751098683
 20
1592.995261261004
 30
0.0
  0
VERTEX
  5
E34
  8
0
 10
1689.595751098683
 20
1592.195261261004
 30
0.0
  0
VERTEX
  5
E35
  8
0
 10
1649.595751098683
 20
1592.195261261004
 30
0.0
  0
VERTEX
  5
E36
  8
0
 10
1649.595751098683
 20
1592.995261261004
 30
0.0
  0
SEQEND
  5
14AA
  8
0
  0
POLYLINE
  5
6F2
  8
0
 66
     1
 10
0.0
 20
0.0
 30
0.0
 70
     1
  0
VERTEX
  5
E37
  8
0
 10
1689.595751098683
 20
1586.745261261004
 30
0.0
  0
VERTEX
  5
E38
  8
0
 10
1689.595751098683
 20
1585.945261261004
 30
0.0
  0
VERTEX
  5
E39
  8
0
 10
1649.595751098683
 20
1585.945261261004
 30
0.0
  0
VERTEX
  5
E3A
  8
0
 10
1649.595751098683
 20
1586.745261261004
 30
0.0
  0
SEQEND
  5
14AB
  8
0
  0
POLYLINE
  5
6F3
  8
0
 66
     1
 10
0.0
 20
0.0
 30
0.0
 70
     1
  0
VERTEX
  5
E3B
  8
0
 10
1689.595751098683
 20
1580.495261261004
 30
0.0
  0
VERTEX
  5
E3C
  8
0
 10
1689.595751098683
 20
1579.695261261004
 30
0.0
  0
VERTEX
  5
E3D
  8
0
 10
1649.595751098683
 20
1579.695261261004
 30
0.0
  0
VERTEX
  5
E3E
  8
0
 10
1649.595751098683
 20
1580.495261261004
 30
0.0
  0
SEQEND
  5
14AC
  8
0
  0
POLYLINE
  5
6F4
  8
0
 66
     1
 10
0.0
 20
0.0
 30
0.0
 70
     1
  0
VERTEX
  5
E3F
  8
0
 10
1689.595751098683
 20
1574.245261261004
 30
0.0
  0
VERTEX
  5
E40
  8
0
 10
1689.595751098683
 20
1573.445261261004
 30
0.0
  0
VERTEX
  5
E41
  8
0
 10
1649.595751098683
 20
1573.445261261004
 30
0.0
  0
VERTEX
  5
E42
  8
0
 10
1649.595751098683
 20
1574.245261261004
 30
0.0
  0
SEQEND
  5
14AD
  8
0
  0
POLYLINE
  5
6F5
  8
0
 66
     1
 10
0.0
 20
0.0
 30
0.0
 70
     1
  0
VERTEX
  5
E43
  8
0
 10
1689.595751098683
 20
1567.995261261004
 30
0.0
  0
VERTEX
  5
E44
  8
0
 10
1689.595751098683
 20
1567.195261261004
 30
0.0
  0
VERTEX
  5
E45
  8
0
 10
1649.595751098683
 20
1567.195261261004
 30
0.0
  0
VERTEX
  5
E46
  8
0
 10
1649.595751098683
 20
1567.995261261004
 30
0.0
  0
SEQEND
  5
14AE
  8
0
  0
POLYLINE
  5
6F6
  8
0
 66
     1
 10
0.0
 20
0.0
 30
0.0
 70
     1
  0
VERTEX
  5
E47
  8
0
 10
1689.595751098683
 20
1561.745261261004
 30
0.0
  0
VERTEX
  5
E48
  8
0
 10
1689.595751098683
 20
1560.945261261004
 30
0.0
  0
VERTEX
  5
E49
  8
0
 10
1649.595751098683
 20
1560.945261261004
 30
0.0
  0
VERTEX
  5
E4A
  8
0
 10
1649.595751098683
 20
1561.745261261004
 30
0.0
  0
SEQEND
  5
14AF
  8
0
  0
POLYLINE
  5
6F7
  8
0
 66
     1
 10
0.0
 20
0.0
 30
0.0
 70
     1
  0
VERTEX
  5
E4B
  8
0
 10
1689.595751098683
 20
1555.495261261004
 30
0.0
  0
VERTEX
  5
E4C
  8
0
 10
1689.595751098683
 20
1554.695261261004
 30
0.0
  0
VERTEX
  5
E4D
  8
0
 10
1649.595751098683
 20
1554.695261261004
 30
0.0
  0
VERTEX
  5
E4E
  8
0
 10
1649.595751098683
 20
1555.495261261004
 30
0.0
  0
SEQEND
  5
14B0
  8
0
  0
POLYLINE
  5
6F8
  8
0
 66
     1
 10
0.0
 20
0.0
 30
0.0
 70
     1
  0
VERTEX
  5
E4F
  8
0
 10
1689.595751098683
 20
1549.245261261004
 30
0.0
  0
VERTEX
  5
E50
  8
0
 10
1689.595751098683
 20
1548.445261261004
 30
0.0
  0
VERTEX
  5
E51
  8
0
 10
1649.595751098683
 20
1548.445261261004
 30
0.0
  0
VERTEX
  5
E52
  8
0
 10
1649.595751098683
 20
1549.245261261004
 30
0.0
  0
SEQEND
  5
14B1
  8
0
  0
POLYLINE
  5
6F9
  8
0
 66
     1
 10
0.0
 20
0.0
 30
0.0
 70
     1
  0
VERTEX
  5
E53
  8
0
 10
1715.169923876079
 20
1602.428426973062
 30
0.0
  0
VERTEX
  5
E54
  8
0
 10
1715.169923876079
 20
1601.628426973063
 30
0.0
  0
VERTEX
  5
E55
  8
0
 10
1675.169923876079
 20
1601.628426973063
 30
0.0
  0
VERTEX
  5
E56
  8
0
 10
1675.169923876079
 20
1602.428426973062
 30
0.0
  0
SEQEND
  5
14B2
  8
0
  0
POLYLINE
  5
6FA
  8
0
 66
     1
 10
0.0
 20
0.0
 30
0.0
 70
     1
  0
VERTEX
  5
E57
  8
0
 10
1715.169923876079
 20
1596.178426973062
 30
0.0
  0
VERTEX
  5
E58
  8
0
 10
1715.169923876079
 20
1595.378426973063
 30
0.0
  0
VERTEX
  5
E59
  8
0
 10
1675.169923876079
 20
1595.378426973063
 30
0.0
  0
VERTEX
  5
E5A
  8
0
 10
1675.169923876079
 20
1596.178426973062
 30
0.0
  0
SEQEND
  5
14B3
  8
0
  0
POLYLINE
  5
6FB
  8
0
 66
     1
 10
0.0
 20
0.0
 30
0.0
 70
     1
  0
VERTEX
  5
E5B
  8
0
 10
1715.169923876079
 20
1589.928426973062
 30
0.0
  0
VERTEX
  5
E5C
  8
0
 10
1715.169923876079
 20
1589.128426973063
 30
0.0
  0
VERTEX
  5
E5D
  8
0
 10
1675.169923876079
 20
1589.128426973063
 30
0.0
  0
VERTEX
  5
E5E
  8
0
 10
1675.169923876079
 20
1589.928426973062
 30
0.0
  0
SEQEND
  5
14B4
  8
0
  0
POLYLINE
  5
6FC
  8
0
 66
     1
 10
0.0
 20
0.0
 30
0.0
 70
     1
  0
VERTEX
  5
E5F
  8
0
 10
1715.169923876079
 20
1583.678426973062
 30
0.0
  0
VERTEX
  5
E60
  8
0
 10
1715.169923876079
 20
1582.878426973063
 30
0.0
  0
VERTEX
  5
E61
  8
0
 10
1675.169923876079
 20
1582.878426973063
 30
0.0
  0
VERTEX
  5
E62
  8
0
 10
1675.169923876079
 20
1583.678426973062
 30
0.0
  0
SEQEND
  5
14B5
  8
0
  0
POLYLINE
  5
6FD
  8
0
 66
     1
 10
0.0
 20
0.0
 30
0.0
 70
     1
  0
VERTEX
  5
E63
  8
0
 10
1715.169923876079
 20
1577.428426973062
 30
0.0
  0
VERTEX
  5
E64
  8
0
 10
1715.169923876079
 20
1576.628426973063
 30
0.0
  0
VERTEX
  5
E65
  8
0
 10
1675.169923876079
 20
1576.628426973063
 30
0.0
  0
VERTEX
  5
E66
  8
0
 10
1675.169923876079
 20
1577.428426973062
 30
0.0
  0
SEQEND
  5
14B6
  8
0
  0
POLYLINE
  5
6FE
  8
0
 66
     1
 10
0.0
 20
0.0
 30
0.0
 70
     1
  0
VERTEX
  5
E67
  8
0
 10
1715.169923876079
 20
1571.178426973062
 30
0.0
  0
VERTEX
  5
E68
  8
0
 10
1715.169923876079
 20
1570.378426973063
 30
0.0
  0
VERTEX
  5
E69
  8
0
 10
1675.169923876079
 20
1570.378426973063
 30
0.0
  0
VERTEX
  5
E6A
  8
0
 10
1675.169923876079
 20
1571.178426973062
 30
0.0
  0
SEQEND
  5
14B7
  8
0
  0
POLYLINE
  5
6FF
  8
0
 66
     1
 10
0.0
 20
0.0
 30
0.0
 70
     1
  0
VERTEX
  5
E6B
  8
0
 10
1715.169923876079
 20
1564.928426973062
 30
0.0
  0
VERTEX
  5
E6C
  8
0
 10
1715.169923876079
 20
1564.128426973063
 30
0.0
  0
VERTEX
  5
E6D
  8
0
 10
1675.169923876079
 20
1564.128426973063
 30
0.0
  0
VERTEX
  5
E6E
  8
0
 10
1675.169923876079
 20
1564.928426973062
 30
0.0
  0
SEQEND
  5
14B8
  8
0
  0
POLYLINE
  5
700
  8
0
 66
     1
 10
0.0
 20
0.0
 30
0.0
  0
VERTEX
  5
E6F
  8
0
 10
1631.370973641624
 20
1602.616811631829
 30
0.0
  0
VERTEX
  5
E70
  8
0
 10
1662.281084683875
 20
1602.616811631829
 30
0.0
  0
VERTEX
  5
E71
  8
0
 10
1662.281084683875
 20
1601.816811631829
 30
0.0
  0
VERTEX
  5
E72
  8
0
 10
1630.675240831643
 20
1601.816811631829
 30
0.0
  0
SEQEND
  5
14B9
  8
0
  0
POLYLINE
  5
701
  8
0
 66
     1
 10
0.0
 20
0.0
 30
0.0
  0
VERTEX
  5
E73
  8
0
 10
1626.17789773404
 20
1596.366811631829
 30
0.0
  0
VERTEX
  5
E74
  8
0
 10
1662.281084683875
 20
1596.366811631829
 30
0.0
  0
VERTEX
  5
E75
  8
0
 10
1662.281084683875
 20
1595.566811631829
 30
0.0
  0
VERTEX
  5
E76
  8
0
 10
1625.551639852203
 20
1595.566811631829
 30
0.0
  0
SEQEND
  5
14BA
  8
0
  0
POLYLINE
  5
702
  8
0
 66
     1
 10
0.0
 20
0.0
 30
0.0
  0
VERTEX
  5
E77
  8
0
 10
1621.499690536915
 20
1590.116811631829
 30
0.0
  0
VERTEX
  5
E78
  8
0
 10
1662.281084683875
 20
1590.116811631829
 30
0.0
  0
VERTEX
  5
E79
  8
0
 10
1662.281084683875
 20
1589.316811631829
 30
0.0
  0
VERTEX
  5
E7A
  8
0
 10
1620.935101935855
 20
1589.316811631829
 30
0.0
  0
SEQEND
  5
14BB
  8
0
  0
POLYLINE
  5
703
  8
0
 66
     1
 10
0.0
 20
0.0
 30
0.0
  0
VERTEX
  5
E7B
  8
0
 10
1617.281684502371
 20
1583.866811631829
 30
0.0
  0
VERTEX
  5
E7C
  8
0
 10
1662.281084683875
 20
1583.866811631829
 30
0.0
  0
VERTEX
  5
E7D
  8
0
 10
1662.281084683875
 20
1583.066811631829
 30
0.0
  0
VERTEX
  5
E7E
  8
0
 10
1616.772702180471
 20
1583.066811631829
 30
0.0
  0
SEQEND
  5
14BC
  8
0
  0
POLYLINE
  5
704
  8
0
 66
     1
 10
0.0
 20
0.0
 30
0.0
  0
VERTEX
  5
E7F
  8
0
 10
1613.481056501822
 20
1577.616811631829
 30
0.0
  0
VERTEX
  5
E80
  8
0
 10
1662.281084683875
 20
1577.616811631829
 30
0.0
  0
VERTEX
  5
E81
  8
0
 10
1662.281084683875
 20
1576.816811631829
 30
0.0
  0
VERTEX
  5
E82
  8
0
 10
1613.022878966276
 20
1576.816811631829
 30
0.0
  0
SEQEND
  5
14BD
  8
0
  0
POLYLINE
  5
705
  8
0
 66
     1
 10
0.0
 20
0.0
 30
0.0
  0
VERTEX
  5
E83
  8
0
 10
1610.063670280595
 20
1571.366811631829
 30
0.0
  0
VERTEX
  5
E84
  8
0
 10
1662.281084683875
 20
1571.366811631829
 30
0.0
  0
VERTEX
  5
E85
  8
0
 10
1662.281084683875
 20
1570.566811631829
 30
0.0
  0
VERTEX
  5
E86
  8
0
 10
1609.652437836229
 20
1570.566811631829
 30
0.0
  0
SEQEND
  5
14BE
  8
0
  0
POLYLINE
  5
706
  8
0
 66
     1
 10
0.0
 20
0.0
 30
0.0
 70
     1
  0
VERTEX
  5
E87
  8
0
 10
1715.169923876079
 20
1558.678426973062
 30
0.0
  0
VERTEX
  5
E88
  8
0
 10
1715.169923876079
 20
1557.878426973063
 30
0.0
  0
VERTEX
  5
E89
  8
0
 10
1675.169923876079
 20
1557.878426973063
 30
0.0
  0
VERTEX
  5
E8A
  8
0
 10
1675.169923876079
 20
1558.678426973062
 30
0.0
  0
SEQEND
  5
14BF
  8
0
  0
POLYLINE
  5
707
  8
0
 66
     1
 10
0.0
 20
0.0
 30
0.0
 70
     1
  0
VERTEX
  5
E8B
  8
0
 10
1715.169923876079
 20
1552.428426973062
 30
0.0
  0
VERTEX
  5
E8C
  8
0
 10
1715.169923876079
 20
1551.628426973063
 30
0.0
  0
VERTEX
  5
E8D
  8
0
 10
1675.169923876079
 20
1551.628426973063
 30
0.0
  0
VERTEX
  5
E8E
  8
0
 10
1675.169923876079
 20
1552.428426973062
 30
0.0
  0
SEQEND
  5
14C0
  8
0
  0
POLYLINE
  5
708
  8
0
 66
     1
 10
0.0
 20
0.0
 30
0.0
 70
     1
  0
VERTEX
  5
E8F
  8
0
 10
1662.281084683875
 20
1565.116811631829
 30
0.0
  0
VERTEX
  5
E90
  8
0
 10
1662.281084683875
 20
1564.316811631829
 30
0.0
  0
VERTEX
  5
E91
  8
0
 10
1622.281084683875
 20
1564.316811631829
 30
0.0
  0
VERTEX
  5
E92
  8
0
 10
1622.281084683875
 20
1565.116811631829
 30
0.0
  0
SEQEND
  5
14C1
  8
0
  0
POLYLINE
  5
709
  8
0
 66
     1
 10
0.0
 20
0.0
 30
0.0
 70
     1
  0
VERTEX
  5
E93
  8
0
 10
1662.281084683875
 20
1558.866811631829
 30
0.0
  0
VERTEX
  5
E94
  8
0
 10
1662.281084683875
 20
1558.066811631829
 30
0.0
  0
VERTEX
  5
E95
  8
0
 10
1622.281084683875
 20
1558.066811631829
 30
0.0
  0
VERTEX
  5
E96
  8
0
 10
1622.281084683875
 20
1558.866811631829
 30
0.0
  0
SEQEND
  5
14C2
  8
0
  0
POLYLINE
  5
70A
  8
0
 66
     1
 10
0.0
 20
0.0
 30
0.0
 70
     1
  0
VERTEX
  5
E97
  8
0
 10
1662.281084683875
 20
1552.616811631829
 30
0.0
  0
VERTEX
  5
E98
  8
0
 10
1662.281084683875
 20
1551.816811631829
 30
0.0
  0
VERTEX
  5
E99
  8
0
 10
1622.281084683875
 20
1551.816811631829
 30
0.0
  0
VERTEX
  5
E9A
  8
0
 10
1622.281084683875
 20
1552.616811631829
 30
0.0
  0
SEQEND
  5
14C3
  8
0
  0
POLYLINE
  5
70B
  8
0
 66
     1
 10
0.0
 20
0.0
 30
0.0
  0
VERTEX
  5
E9B
  8
0
 10
1744.638771143593
 20
1598.445261261004
 30
0.0
  0
VERTEX
  5
E9C
  8
0
 10
1699.595751098683
 20
1598.445261261004
 30
0.0
  0
VERTEX
  5
E9D
  8
0
 10
1699.595751098683
 20
1599.245261261004
 30
0.0
  0
VERTEX
  5
E9E
  8
0
 10
1744.638771143593
 20
1599.245261261004
 30
0.0
  0
SEQEND
  5
14C4
  8
0
  0
POLYLINE
  5
70C
  8
0
 66
     1
 10
0.0
 20
0.0
 30
0.0
  0
VERTEX
  5
E9F
  8
0
 10
1744.638771143593
 20
1592.195261261004
 30
0.0
  0
VERTEX
  5
EA0
  8
0
 10
1699.595751098683
 20
1592.195261261004
 30
0.0
  0
VERTEX
  5
EA1
  8
0
 10
1699.595751098683
 20
1592.995261261004
 30
0.0
  0
VERTEX
  5
EA2
  8
0
 10
1744.638771143593
 20
1592.995261261004
 30
0.0
  0
SEQEND
  5
14C5
  8
0
  0
POLYLINE
  5
70D
  8
0
 66
     1
 10
0.0
 20
0.0
 30
0.0
  0
VERTEX
  5
EA3
  8
0
 10
1744.638771143593
 20
1585.945261261004
 30
0.0
  0
VERTEX
  5
EA4
  8
0
 10
1699.595751098683
 20
1585.945261261004
 30
0.0
  0
VERTEX
  5
EA5
  8
0
 10
1699.595751098683
 20
1586.745261261004
 30
0.0
  0
VERTEX
  5
EA6
  8
0
 10
1744.638771143593
 20
1586.745261261004
 30
0.0
  0
SEQEND
  5
14C6
  8
0
  0
POLYLINE
  5
70E
  8
0
 66
     1
 10
0.0
 20
0.0
 30
0.0
  0
VERTEX
  5
EA7
  8
0
 10
1744.638771143593
 20
1579.695261261004
 30
0.0
  0
VERTEX
  5
EA8
  8
0
 10
1699.595751098683
 20
1579.695261261004
 30
0.0
  0
VERTEX
  5
EA9
  8
0
 10
1699.595751098683
 20
1580.495261261004
 30
0.0
  0
VERTEX
  5
EAA
  8
0
 10
1744.638771143593
 20
1580.495261261004
 30
0.0
  0
SEQEND
  5
14C7
  8
0
  0
POLYLINE
  5
70F
  8
0
 66
     1
 10
0.0
 20
0.0
 30
0.0
  0
VERTEX
  5
EAB
  8
0
 10
1744.638771143593
 20
1573.445261261004
 30
0.0
  0
VERTEX
  5
EAC
  8
0
 10
1699.595751098683
 20
1573.445261261004
 30
0.0
  0
VERTEX
  5
EAD
  8
0
 10
1699.595751098683
 20
1574.245261261004
 30
0.0
  0
VERTEX
  5
EAE
  8
0
 10
1744.638771143593
 20
1574.245261261004
 30
0.0
  0
SEQEND
  5
14C8
  8
0
  0
POLYLINE
  5
710
  8
0
 66
     1
 10
0.0
 20
0.0
 30
0.0
  0
VERTEX
  5
EAF
  8
0
 10
1744.638771143593
 20
1567.195261261004
 30
0.0
  0
VERTEX
  5
EB0
  8
0
 10
1699.595751098683
 20
1567.195261261004
 30
0.0
  0
VERTEX
  5
EB1
  8
0
 10
1699.595751098683
 20
1567.995261261004
 30
0.0
  0
VERTEX
  5
EB2
  8
0
 10
1744.638771143593
 20
1567.995261261004
 30
0.0
  0
SEQEND
  5
14C9
  8
0
  0
POLYLINE
  5
711
  8
0
 66
     1
 10
0.0
 20
0.0
 30
0.0
  0
VERTEX
  5
EB3
  8
0
 10
1744.638771143593
 20
1560.945261261004
 30
0.0
  0
VERTEX
  5
EB4
  8
0
 10
1699.595751098683
 20
1560.945261261004
 30
0.0
  0
VERTEX
  5
EB5
  8
0
 10
1699.595751098683
 20
1561.745261261004
 30
0.0
  0
VERTEX
  5
EB6
  8
0
 10
1744.638771143593
 20
1561.745261261004
 30
0.0
  0
SEQEND
  5
14CA
  8
0
  0
POLYLINE
  5
712
  8
0
 66
     1
 10
0.0
 20
0.0
 30
0.0
  0
VERTEX
  5
EB7
  8
0
 10
1744.638771143593
 20
1554.695261261004
 30
0.0
  0
VERTEX
  5
EB8
  8
0
 10
1699.595751098683
 20
1554.695261261004
 30
0.0
  0
VERTEX
  5
EB9
  8
0
 10
1699.595751098683
 20
1555.495261261004
 30
0.0
  0
VERTEX
  5
EBA
  8
0
 10
1744.638771143593
 20
1555.495261261004
 30
0.0
  0
SEQEND
  5
14CB
  8
0
  0
POLYLINE
  5
713
  8
0
 66
     1
 10
0.0
 20
0.0
 30
0.0
  0
VERTEX
  5
EBB
  8
0
 10
1744.638771143593
 20
1548.445261261004
 30
0.0
  0
VERTEX
  5
EBC
  8
0
 10
1699.595751098683
 20
1548.445261261004
 30
0.0
  0
VERTEX
  5
EBD
  8
0
 10
1699.595751098683
 20
1549.245261261004
 30
0.0
  0
VERTEX
  5
EBE
  8
0
 10
1744.638771143593
 20
1549.245261261004
 30
0.0
  0
SEQEND
  5
14CC
  8
0
  0
POLYLINE
  5
714
  8
0
 66
     1
 10
0.0
 20
0.0
 30
0.0
 70
     1
  0
VERTEX
  5
EBF
  8
0
 10
1689.595751098683
 20
1542.995261261004
 30
0.0
  0
VERTEX
  5
EC0
  8
0
 10
1689.595751098683
 20
1542.195261261004
 30
0.0
  0
VERTEX
  5
EC1
  8
0
 10
1649.595751098683
 20
1542.195261261004
 30
0.0
  0
VERTEX
  5
EC2
  8
0
 10
1649.595751098683
 20
1542.995261261004
 30
0.0
  0
SEQEND
  5
14CD
  8
0
  0
POLYLINE
  5
715
  8
0
 66
     1
 10
0.0
 20
0.0
 30
0.0
 70
     1
  0
VERTEX
  5
EC3
  8
0
 10
1689.595751098683
 20
1536.745261261004
 30
0.0
  0
VERTEX
  5
EC4
  8
0
 10
1689.595751098683
 20
1535.945261261004
 30
0.0
  0
VERTEX
  5
EC5
  8
0
 10
1649.595751098683
 20
1535.945261261004
 30
0.0
  0
VERTEX
  5
EC6
  8
0
 10
1649.595751098683
 20
1536.745261261004
 30
0.0
  0
SEQEND
  5
14CE
  8
0
  0
POLYLINE
  5
716
  8
0
 66
     1
 10
0.0
 20
0.0
 30
0.0
 70
     1
  0
VERTEX
  5
EC7
  8
0
 10
1689.595751098683
 20
1530.495261261004
 30
0.0
  0
VERTEX
  5
EC8
  8
0
 10
1689.595751098683
 20
1529.695261261004
 30
0.0
  0
VERTEX
  5
EC9
  8
0
 10
1649.595751098683
 20
1529.695261261004
 30
0.0
  0
VERTEX
  5
ECA
  8
0
 10
1649.595751098683
 20
1530.495261261004
 30
0.0
  0
SEQEND
  5
14CF
  8
0
  0
POLYLINE
  5
717
  8
0
 66
     1
 10
0.0
 20
0.0
 30
0.0
 70
     1
  0
VERTEX
  5
ECB
  8
0
 10
1689.595751098683
 20
1524.245261261004
 30
0.0
  0
VERTEX
  5
ECC
  8
0
 10
1689.595751098683
 20
1523.445261261004
 30
0.0
  0
VERTEX
  5
ECD
  8
0
 10
1649.595751098683
 20
1523.445261261004
 30
0.0
  0
VERTEX
  5
ECE
  8
0
 10
1649.595751098683
 20
1524.245261261004
 30
0.0
  0
SEQEND
  5
14D0
  8
0
  0
POLYLINE
  5
718
  8
0
 66
     1
 10
0.0
 20
0.0
 30
0.0
 70
     1
  0
VERTEX
  5
ECF
  8
0
 10
1689.595751098683
 20
1517.995261261004
 30
0.0
  0
VERTEX
  5
ED0
  8
0
 10
1689.595751098683
 20
1517.195261261004
 30
0.0
  0
VERTEX
  5
ED1
  8
0
 10
1649.595751098683
 20
1517.195261261004
 30
0.0
  0
VERTEX
  5
ED2
  8
0
 10
1649.595751098683
 20
1517.995261261004
 30
0.0
  0
SEQEND
  5
14D1
  8
0
  0
POLYLINE
  5
719
  8
0
 66
     1
 10
0.0
 20
0.0
 30
0.0
 70
     1
  0
VERTEX
  5
ED3
  8
0
 10
1689.595751098683
 20
1511.745261261004
 30
0.0
  0
VERTEX
  5
ED4
  8
0
 10
1689.595751098683
 20
1510.945261261004
 30
0.0
  0
VERTEX
  5
ED5
  8
0
 10
1649.595751098683
 20
1510.945261261004
 30
0.0
  0
VERTEX
  5
ED6
  8
0
 10
1649.595751098683
 20
1511.745261261004
 30
0.0
  0
SEQEND
  5
14D2
  8
0
  0
POLYLINE
  5
71A
  8
0
 66
     1
 10
0.0
 20
0.0
 30
0.0
 70
     1
  0
VERTEX
  5
ED7
  8
0
 10
1689.595751098683
 20
1505.495261261004
 30
0.0
  0
VERTEX
  5
ED8
  8
0
 10
1689.595751098683
 20
1504.695261261004
 30
0.0
  0
VERTEX
  5
ED9
  8
0
 10
1649.595751098683
 20
1504.695261261004
 30
0.0
  0
VERTEX
  5
EDA
  8
0
 10
1649.595751098683
 20
1505.495261261004
 30
0.0
  0
SEQEND
  5
14D3
  8
0
  0
POLYLINE
  5
71B
  8
0
 66
     1
 10
0.0
 20
0.0
 30
0.0
  0
VERTEX
  5
EDB
  8
0
 10
1744.638771143593
 20
1542.195261261004
 30
0.0
  0
VERTEX
  5
EDC
  8
0
 10
1699.595751098683
 20
1542.195261261004
 30
0.0
  0
VERTEX
  5
EDD
  8
0
 10
1699.595751098683
 20
1542.995261261004
 30
0.0
  0
VERTEX
  5
EDE
  8
0
 10
1744.638771143593
 20
1542.995261261004
 30
0.0
  0
SEQEND
  5
14D4
  8
0
  0
POLYLINE
  5
71C
  8
0
 66
     1
 10
0.0
 20
0.0
 30
0.0
  0
VERTEX
  5
EDF
  8
0
 10
1744.638771143593
 20
1535.945261261004
 30
0.0
  0
VERTEX
  5
EE0
  8
0
 10
1699.595751098683
 20
1535.945261261004
 30
0.0
  0
VERTEX
  5
EE1
  8
0
 10
1699.595751098683
 20
1536.745261261004
 30
0.0
  0
VERTEX
  5
EE2
  8
0
 10
1744.638771143593
 20
1536.745261261004
 30
0.0
  0
SEQEND
  5
14D5
  8
0
  0
POLYLINE
  5
71D
  8
0
 66
     1
 10
0.0
 20
0.0
 30
0.0
  0
VERTEX
  5
EE3
  8
0
 10
1744.638771143593
 20
1529.695261261004
 30
0.0
  0
VERTEX
  5
EE4
  8
0
 10
1699.595751098683
 20
1529.695261261004
 30
0.0
  0
VERTEX
  5
EE5
  8
0
 10
1699.595751098683
 20
1530.495261261004
 30
0.0
  0
VERTEX
  5
EE6
  8
0
 10
1744.638771143593
 20
1530.495261261004
 30
0.0
  0
SEQEND
  5
14D6
  8
0
  0
POLYLINE
  5
71E
  8
0
 66
     1
 10
0.0
 20
0.0
 30
0.0
  0
VERTEX
  5
EE7
  8
0
 10
1744.638771143593
 20
1523.445261261004
 30
0.0
  0
VERTEX
  5
EE8
  8
0
 10
1699.595751098683
 20
1523.445261261004
 30
0.0
  0
VERTEX
  5
EE9
  8
0
 10
1699.595751098683
 20
1524.245261261004
 30
0.0
  0
VERTEX
  5
EEA
  8
0
 10
1744.638771143593
 20
1524.245261261004
 30
0.0
  0
SEQEND
  5
14D7
  8
0
  0
POLYLINE
  5
71F
  8
0
 66
     1
 10
0.0
 20
0.0
 30
0.0
  0
VERTEX
  5
EEB
  8
0
 10
1744.638771143593
 20
1517.195261261004
 30
0.0
  0
VERTEX
  5
EEC
  8
0
 10
1699.595751098683
 20
1517.195261261004
 30
0.0
  0
VERTEX
  5
EED
  8
0
 10
1699.595751098683
 20
1517.995261261004
 30
0.0
  0
VERTEX
  5
EEE
  8
0
 10
1744.638771143593
 20
1517.995261261004
 30
0.0
  0
SEQEND
  5
14D8
  8
0
  0
POLYLINE
  5
720
  8
0
 66
     1
 10
0.0
 20
0.0
 30
0.0
  0
VERTEX
  5
EEF
  8
0
 10
1744.638771143593
 20
1510.945261261004
 30
0.0
  0
VERTEX
  5
EF0
  8
0
 10
1699.595751098683
 20
1510.945261261004
 30
0.0
  0
VERTEX
  5
EF1
  8
0
 10
1699.595751098683
 20
1511.745261261004
 30
0.0
  0
VERTEX
  5
EF2
  8
0
 10
1744.638771143593
 20
1511.745261261004
 30
0.0
  0
SEQEND
  5
14D9
  8
0
  0
POLYLINE
  5
721
  8
0
 66
     1
 10
0.0
 20
0.0
 30
0.0
  0
VERTEX
  5
EF3
  8
0
 10
1744.638771143593
 20
1504.695261261004
 30
0.0
  0
VERTEX
  5
EF4
  8
0
 10
1699.595751098683
 20
1504.695261261004
 30
0.0
  0
VERTEX
  5
EF5
  8
0
 10
1699.595751098683
 20
1505.495261261004
 30
0.0
  0
VERTEX
  5
EF6
  8
0
 10
1744.638771143593
 20
1505.495261261004
 30
0.0
  0
SEQEND
  5
14DA
  8
0
  0
POLYLINE
  5
722
  8
0
 66
     1
 10
0.0
 20
0.0
 30
0.0
 70
     1
  0
VERTEX
  5
EF7
  8
0
 10
1689.595751098683
 20
1542.995261261004
 30
0.0
  0
VERTEX
  5
EF8
  8
0
 10
1689.595751098683
 20
1542.195261261004
 30
0.0
  0
VERTEX
  5
EF9
  8
0
 10
1649.595751098683
 20
1542.195261261004
 30
0.0
  0
VERTEX
  5
EFA
  8
0
 10
1649.595751098683
 20
1542.995261261004
 30
0.0
  0
SEQEND
  5
14DB
  8
0
  0
POLYLINE
  5
723
  8
0
 66
     1
 10
0.0
 20
0.0
 30
0.0
 70
     1
  0
VERTEX
  5
EFB
  8
0
 10
1689.595751098683
 20
1536.745261261004
 30
0.0
  0
VERTEX
  5
EFC
  8
0
 10
1689.595751098683
 20
1535.945261261004
 30
0.0
  0
VERTEX
  5
EFD
  8
0
 10
1649.595751098683
 20
1535.945261261004
 30
0.0
  0
VERTEX
  5
EFE
  8
0
 10
1649.595751098683
 20
1536.745261261004
 30
0.0
  0
SEQEND
  5
14DC
  8
0
  0
POLYLINE
  5
724
  8
0
 66
     1
 10
0.0
 20
0.0
 30
0.0
 70
     1
  0
VERTEX
  5
EFF
  8
0
 10
1689.595751098683
 20
1530.495261261004
 30
0.0
  0
VERTEX
  5
F00
  8
0
 10
1689.595751098683
 20
1529.695261261004
 30
0.0
  0
VERTEX
  5
F01
  8
0
 10
1649.595751098683
 20
1529.695261261004
 30
0.0
  0
VERTEX
  5
F02
  8
0
 10
1649.595751098683
 20
1530.495261261004
 30
0.0
  0
SEQEND
  5
14DD
  8
0
  0
POLYLINE
  5
725
  8
0
 66
     1
 10
0.0
 20
0.0
 30
0.0
 70
     1
  0
VERTEX
  5
F03
  8
0
 10
1689.595751098683
 20
1524.245261261004
 30
0.0
  0
VERTEX
  5
F04
  8
0
 10
1689.595751098683
 20
1523.445261261004
 30
0.0
  0
VERTEX
  5
F05
  8
0
 10
1649.595751098683
 20
1523.445261261004
 30
0.0
  0
VERTEX
  5
F06
  8
0
 10
1649.595751098683
 20
1524.245261261004
 30
0.0
  0
SEQEND
  5
14DE
  8
0
  0
POLYLINE
  5
726
  8
0
 66
     1
 10
0.0
 20
0.0
 30
0.0
 70
     1
  0
VERTEX
  5
F07
  8
0
 10
1689.595751098683
 20
1517.995261261004
 30
0.0
  0
VERTEX
  5
F08
  8
0
 10
1689.595751098683
 20
1517.195261261004
 30
0.0
  0
VERTEX
  5
F09
  8
0
 10
1649.595751098683
 20
1517.195261261004
 30
0.0
  0
VERTEX
  5
F0A
  8
0
 10
1649.595751098683
 20
1517.995261261004
 30
0.0
  0
SEQEND
  5
14DF
  8
0
  0
POLYLINE
  5
727
  8
0
 66
     1
 10
0.0
 20
0.0
 30
0.0
 70
     1
  0
VERTEX
  5
F0B
  8
0
 10
1689.595751098683
 20
1511.745261261004
 30
0.0
  0
VERTEX
  5
F0C
  8
0
 10
1689.595751098683
 20
1510.945261261004
 30
0.0
  0
VERTEX
  5
F0D
  8
0
 10
1649.595751098683
 20
1510.945261261004
 30
0.0
  0
VERTEX
  5
F0E
  8
0
 10
1649.595751098683
 20
1511.745261261004
 30
0.0
  0
SEQEND
  5
14E0
  8
0
  0
POLYLINE
  5
728
  8
0
 66
     1
 10
0.0
 20
0.0
 30
0.0
 70
     1
  0
VERTEX
  5
F0F
  8
0
 10
1689.595751098683
 20
1505.495261261004
 30
0.0
  0
VERTEX
  5
F10
  8
0
 10
1689.595751098683
 20
1504.695261261004
 30
0.0
  0
VERTEX
  5
F11
  8
0
 10
1649.595751098683
 20
1504.695261261004
 30
0.0
  0
VERTEX
  5
F12
  8
0
 10
1649.595751098683
 20
1505.495261261004
 30
0.0
  0
SEQEND
  5
14E1
  8
0
  0
POLYLINE
  5
729
  8
0
 66
     1
 10
0.0
 20
0.0
 30
0.0
  0
VERTEX
  5
F13
  8
0
 10
1686.487978778385
 20
1642.995261261004
 30
0.0
  0
VERTEX
  5
F14
  8
0
 10
1689.595751098683
 20
1642.995261261004
 30
0.0
  0
VERTEX
  5
F15
  8
0
 10
1689.595751098683
 20
1642.195261261004
 30
0.0
  0
VERTEX
  5
F16
  8
0
 10
1684.692594835441
 20
1642.195261261004
 30
0.0
  0
SEQEND
  5
14E2
  8
0
  0
POLYLINE
  5
72A
  8
0
 66
     1
 10
0.0
 20
0.0
 30
0.0
  0
VERTEX
  5
F17
  8
0
 10
1673.808022798002
 20
1636.745261261004
 30
0.0
  0
VERTEX
  5
F18
  8
0
 10
1689.595751098683
 20
1636.745261261004
 30
0.0
  0
VERTEX
  5
F19
  8
0
 10
1689.595751098683
 20
1635.945261261004
 30
0.0
  0
VERTEX
  5
F1A
  8
0
 10
1672.371841218056
 20
1635.945261261004
 30
0.0
  0
SEQEND
  5
14E3
  8
0
  0
POLYLINE
  5
72B
  8
0
 66
     1
 10
0.0
 20
0.0
 30
0.0
  0
VERTEX
  5
F1B
  8
0
 10
1663.41943725253
 20
1630.495261261004
 30
0.0
  0
VERTEX
  5
F1C
  8
0
 10
1689.595751098683
 20
1630.495261261004
 30
0.0
  0
VERTEX
  5
F1D
  8
0
 10
1689.595751098683
 20
1629.695261261004
 30
0.0
  0
VERTEX
  5
F1E
  8
0
 10
1662.211192012607
 20
1629.695261261004
 30
0.0
  0
SEQEND
  5
14E4
  8
0
  0
POLYLINE
  5
72C
  8
0
 66
     1
 10
0.0
 20
0.0
 30
0.0
  0
VERTEX
  5
F1F
  8
0
 10
1654.566896391692
 20
1624.245261261004
 30
0.0
  0
VERTEX
  5
F20
  8
0
 10
1689.595751098683
 20
1624.245261261004
 30
0.0
  0
VERTEX
  5
F21
  8
0
 10
1689.595751098683
 20
1623.445261261004
 30
0.0
  0
VERTEX
  5
F22
  8
0
 10
1653.522067775762
 20
1623.445261261004
 30
0.0
  0
SEQEND
  5
14E5
  8
0
  0
POLYLINE
  5
72D
  8
0
 66
     1
 10
0.0
 20
0.0
 30
0.0
  0
VERTEX
  5
F23
  8
0
 10
1646.852173231565
 20
1617.995261261004
 30
0.0
  0
VERTEX
  5
F24
  8
0
 10
1689.595751098683
 20
1617.995261261004
 30
0.0
  0
VERTEX
  5
F25
  8
0
 10
1689.595751098683
 20
1617.195261261004
 30
0.0
  0
VERTEX
  5
F26
  8
0
 10
1645.933388447796
 20
1617.195261261004
 30
0.0
  0
SEQEND
  5
14E6
  8
0
  0
POLYLINE
  5
72E
  8
0
 66
     1
 10
0.0
 20
0.0
 30
0.0
  0
VERTEX
  5
F27
  8
0
 10
1640.034412539238
 20
1611.745261261004
 30
0.0
  0
VERTEX
  5
F28
  8
0
 10
1689.595751098683
 20
1611.745261261004
 30
0.0
  0
VERTEX
  5
F29
  8
0
 10
1689.595751098683
 20
1610.945261261004
 30
0.0
  0
VERTEX
  5
F2A
  8
0
 10
1639.21772853391
 20
1610.945261261004
 30
0.0
  0
SEQEND
  5
14E7
  8
0
  0
POLYLINE
  5
72F
  8
0
 66
     1
 10
0.0
 20
0.0
 30
0.0
 70
     1
  0
VERTEX
  5
F2B
  8
0
 10
1689.595751098683
 20
1605.495261261004
 30
0.0
  0
VERTEX
  5
F2C
  8
0
 10
1689.595751098683
 20
1604.695261261004
 30
0.0
  0
VERTEX
  5
F2D
  8
0
 10
1649.595751098683
 20
1604.695261261004
 30
0.0
  0
VERTEX
  5
F2E
  8
0
 10
1649.595751098683
 20
1605.495261261004
 30
0.0
  0
SEQEND
  5
14E8
  8
0
  0
POLYLINE
  5
730
  8
0
 66
     1
 10
0.0
 20
0.0
 30
0.0
  0
VERTEX
  5
F2F
  8
0
 10
1600.682580186536
 20
1549.245261261004
 30
0.0
  0
VERTEX
  5
F30
  8
0
 10
1639.595751098683
 20
1549.245261261004
 30
0.0
  0
VERTEX
  5
F31
  8
0
 10
1639.595751098683
 20
1548.445261261004
 30
0.0
  0
VERTEX
  5
F32
  8
0
 10
1600.415870909144
 20
1548.445261261004
 30
0.0
  0
SEQEND
  5
14E9
  8
0
  0
POLYLINE
  5
731
  8
0
 66
     1
 10
0.0
 20
0.0
 30
0.0
  0
VERTEX
  5
F33
  8
0
 10
1598.724382860141
 20
1542.995261261004
 30
0.0
  0
VERTEX
  5
F34
  8
0
 10
1639.595751098683
 20
1542.995261261004
 30
0.0
  0
VERTEX
  5
F35
  8
0
 10
1639.595751098683
 20
1542.195261261004
 30
0.0
  0
VERTEX
  5
F36
  8
0
 10
1598.494241602787
 20
1542.195261261004
 30
0.0
  0
SEQEND
  5
14EA
  8
0
  0
POLYLINE
  5
732
  8
0
 66
     1
 10
0.0
 20
0.0
 30
0.0
  0
VERTEX
  5
F37
  8
0
 10
1597.047324876314
 20
1536.745261261004
 30
0.0
  0
VERTEX
  5
F38
  8
0
 10
1639.595751098683
 20
1536.745261261004
 30
0.0
  0
VERTEX
  5
F39
  8
0
 10
1639.595751098683
 20
1535.945261261004
 30
0.0
  0
VERTEX
  5
F3A
  8
0
 10
1596.852465585797
 20
1535.945261261004
 30
0.0
  0
SEQEND
  5
14EB
  8
0
  0
POLYLINE
  5
733
  8
0
 66
     1
 10
0.0
 20
0.0
 30
0.0
  0
VERTEX
  5
F3B
  8
0
 10
1595.642212037157
 20
1530.495261261004
 30
0.0
  0
VERTEX
  5
F3C
  8
0
 10
1639.595751098683
 20
1530.495261261004
 30
0.0
  0
VERTEX
  5
F3D
  8
0
 10
1639.595751098683
 20
1529.695261261004
 30
0.0
  0
VERTEX
  5
F3E
  8
0
 10
1595.481592612941
 20
1529.695261261004
 30
0.0
  0
SEQEND
  5
14EC
  8
0
  0
POLYLINE
  5
734
  8
0
 66
     1
 10
0.0
 20
0.0
 30
0.0
  0
VERTEX
  5
F3F
  8
0
 10
1594.501647843239
 20
1524.245261261004
 30
0.0
  0
VERTEX
  5
F40
  8
0
 10
1639.595751098683
 20
1524.245261261004
 30
0.0
  0
VERTEX
  5
F41
  8
0
 10
1639.595751098683
 20
1523.445261261004
 30
0.0
  0
VERTEX
  5
F42
  8
0
 10
1594.374439976353
 20
1523.445261261004
 30
0.0
  0
SEQEND
  5
14ED
  8
0
  0
POLYLINE
  5
735
  8
0
 66
     1
 10
0.0
 20
0.0
 30
0.0
  0
VERTEX
  5
F43
  8
0
 10
1593.619824747331
 20
1517.995261261004
 30
0.0
  0
VERTEX
  5
F44
  8
0
 10
1639.595751098683
 20
1517.995261261004
 30
0.0
  0
VERTEX
  5
F45
  8
0
 10
1639.595751098683
 20
1517.195261261004
 30
0.0
  0
VERTEX
  5
F46
  8
0
 10
1593.525391311524
 20
1517.195261261004
 30
0.0
  0
SEQEND
  5
14EE
  8
0
  0
POLYLINE
  5
736
  8
0
 66
     1
 10
0.0
 20
0.0
 30
0.0
  0
VERTEX
  5
F47
  8
0
 10
1592.992368862115
 20
1511.745261261004
 30
0.0
  0
VERTEX
  5
F48
  8
0
 10
1639.595751098683
 20
1511.745261261004
 30
0.0
  0
VERTEX
  5
F49
  8
0
 10
1639.595751098683
 20
1510.945261261004
 30
0.0
  0
VERTEX
  5
F4A
  8
0
 10
1592.930247333249
 20
1510.945261261004
 30
0.0
  0
SEQEND
  5
14EF
  8
0
  0
POLYLINE
  5
737
  8
0
 66
     1
 10
0.0
 20
0.0
 30
0.0
  0
VERTEX
  5
F4B
  8
0
 10
1592.616227934019
 20
1505.495261261004
 30
0.0
  0
VERTEX
  5
F4C
  8
0
 10
1617.254580014384
 20
1505.495261261004
 30
0.0
  0
SEQEND
  5
14F0
  8
0
  0
POLYLINE
  5
738
  8
0
 66
     1
 10
0.0
 20
0.0
 30
0.0
  0
VERTEX
  5
F4D
  8
0
 10
1598.724382860141
 20
1542.995261261004
 30
0.0
  0
VERTEX
  5
F4E
  8
0
 10
1639.595751098683
 20
1542.995261261004
 30
0.0
  0
VERTEX
  5
F4F
  8
0
 10
1639.595751098683
 20
1542.195261261004
 30
0.0
  0
VERTEX
  5
F50
  8
0
 10
1598.494241602787
 20
1542.195261261004
 30
0.0
  0
SEQEND
  5
14F1
  8
0
  0
POLYLINE
  5
739
  8
0
 66
     1
 10
0.0
 20
0.0
 30
0.0
  0
VERTEX
  5
F51
  8
0
 10
1597.047324876314
 20
1536.745261261004
 30
0.0
  0
VERTEX
  5
F52
  8
0
 10
1639.595751098683
 20
1536.745261261004
 30
0.0
  0
VERTEX
  5
F53
  8
0
 10
1639.595751098683
 20
1535.945261261004
 30
0.0
  0
VERTEX
  5
F54
  8
0
 10
1596.852465585797
 20
1535.945261261004
 30
0.0
  0
SEQEND
  5
14F2
  8
0
  0
POLYLINE
  5
73A
  8
0
 66
     1
 10
0.0
 20
0.0
 30
0.0
  0
VERTEX
  5
F55
  8
0
 10
1595.642212037157
 20
1530.495261261004
 30
0.0
  0
VERTEX
  5
F56
  8
0
 10
1639.595751098683
 20
1530.495261261004
 30
0.0
  0
VERTEX
  5
F57
  8
0
 10
1639.595751098683
 20
1529.695261261004
 30
0.0
  0
VERTEX
  5
F58
  8
0
 10
1595.481592612941
 20
1529.695261261004
 30
0.0
  0
SEQEND
  5
14F3
  8
0
  0
POLYLINE
  5
73B
  8
0
 66
     1
 10
0.0
 20
0.0
 30
0.0
  0
VERTEX
  5
F59
  8
0
 10
1594.501647843239
 20
1524.245261261004
 30
0.0
  0
VERTEX
  5
F5A
  8
0
 10
1639.595751098683
 20
1524.245261261004
 30
0.0
  0
VERTEX
  5
F5B
  8
0
 10
1639.595751098683
 20
1523.445261261004
 30
0.0
  0
VERTEX
  5
F5C
  8
0
 10
1594.374439976353
 20
1523.445261261004
 30
0.0
  0
SEQEND
  5
14F4
  8
0
  0
POLYLINE
  5
73C
  8
0
 66
     1
 10
0.0
 20
0.0
 30
0.0
  0
VERTEX
  5
F5D
  8
0
 10
1593.619824747331
 20
1517.995261261004
 30
0.0
  0
VERTEX
  5
F5E
  8
0
 10
1639.595751098683
 20
1517.995261261004
 30
0.0
  0
VERTEX
  5
F5F
  8
0
 10
1639.595751098683
 20
1517.195261261004
 30
0.0
  0
VERTEX
  5
F60
  8
0
 10
1593.525391311524
 20
1517.195261261004
 30
0.0
  0
SEQEND
  5
14F5
  8
0
  0
POLYLINE
  5
73D
  8
0
 66
     1
 10
0.0
 20
0.0
 30
0.0
  0
VERTEX
  5
F61
  8
0
 10
1592.992368862115
 20
1511.745261261004
 30
0.0
  0
VERTEX
  5
F62
  8
0
 10
1639.595751098683
 20
1511.745261261004
 30
0.0
  0
VERTEX
  5
F63
  8
0
 10
1639.595751098683
 20
1510.945261261004
 30
0.0
  0
VERTEX
  5
F64
  8
0
 10
1592.930247333249
 20
1510.945261261004
 30
0.0
  0
SEQEND
  5
14F6
  8
0
  0
POLYLINE
  5
73E
  8
0
 66
     1
 10
0.0
 20
0.0
 30
0.0
  0
VERTEX
  5
F65
  8
0
 10
1592.616227934019
 20
1505.495261261004
 30
0.0
  0
VERTEX
  5
F66
  8
0
 10
1617.254580014384
 20
1505.495261261004
 30
0.0
  0
SEQEND
  5
14F7
  8
0
  0
POLYLINE
  5
73F
  8
0
 66
     1
 10
0.0
 20
0.0
 30
0.0
  0
VERTEX
  5
F67
  8
0
 10
1734.730367682663
 20
1655.495261261004
 30
0.0
  0
VERTEX
  5
F68
  8
0
 10
1744.638771143593
 20
1655.495261261004
 30
0.0
  0
SEQEND
  5
14F8
  8
0
  0
POLYLINE
  5
740
  8
0
 66
     1
 10
0.0
 20
0.0
 30
0.0
  0
VERTEX
  5
F69
  8
0
 10
1744.638771143593
 20
1654.695261261004
 30
0.0
  0
VERTEX
  5
F6A
  8
0
 10
1727.872877747855
 20
1654.695261261004
 30
0.0
  0
SEQEND
  5
14F9
  8
0
  0
POLYLINE
  5
741
  8
0
 66
     1
 10
0.0
 20
0.0
 30
0.0
  0
VERTEX
  5
F6B
  8
0
 10
1703.309709243352
 20
1649.245261261004
 30
0.0
  0
VERTEX
  5
F6C
  8
0
 10
1744.638771143593
 20
1649.245261261004
 30
0.0
  0
SEQEND
  5
14FA
  8
0
  0
POLYLINE
  5
742
  8
0
 66
     1
 10
0.0
 20
0.0
 30
0.0
  0
VERTEX
  5
F6D
  8
0
 10
1744.638771143593
 20
1648.445261261004
 30
0.0
  0
VERTEX
  5
F6E
  8
0
 10
1700.786110060736
 20
1648.445261261004
 30
0.0
  0
SEQEND
  5
14FB
  8
0
  0
POLYLINE
  5
743
  8
0
 66
     1
 10
0.0
 20
0.0
 30
0.0
  0
VERTEX
  5
F6F
  8
0
 10
1744.638771143593
 20
1642.195261261004
 30
0.0
  0
VERTEX
  5
F70
  8
0
 10
1699.595751098683
 20
1642.195261261004
 30
0.0
  0
VERTEX
  5
F71
  8
0
 10
1699.595751098683
 20
1642.995261261004
 30
0.0
  0
VERTEX
  5
F72
  8
0
 10
1744.638771143593
 20
1642.995261261004
 30
0.0
  0
SEQEND
  5
14FC
  8
0
  0
POLYLINE
  5
744
  8
0
 66
     1
 10
0.0
 20
0.0
 30
0.0
  0
VERTEX
  5
F73
  8
0
 10
1744.638771143593
 20
1635.945261261004
 30
0.0
  0
VERTEX
  5
F74
  8
0
 10
1699.595751098683
 20
1635.945261261004
 30
0.0
  0
VERTEX
  5
F75
  8
0
 10
1699.595751098683
 20
1636.745261261004
 30
0.0
  0
VERTEX
  5
F76
  8
0
 10
1744.638771143593
 20
1636.745261261004
 30
0.0
  0
SEQEND
  5
14FD
  8
0
  0
POLYLINE
  5
745
  8
0
 66
     1
 10
0.0
 20
0.0
 30
0.0
  0
VERTEX
  5
F77
  8
0
 10
1743.997870629976
 20
1629.695261261004
 30
0.0
  0
VERTEX
  5
F78
  8
0
 10
1699.595751098683
 20
1629.695261261004
 30
0.0
  0
VERTEX
  5
F79
  8
0
 10
1699.595751098683
 20
1630.495261261004
 30
0.0
  0
VERTEX
  5
F7A
  8
0
 10
1744.007518538972
 20
1630.495261261004
 30
0.0
  0
SEQEND
  5
14FE
  8
0
  0
POLYLINE
  5
746
  8
0
 66
     1
 10
0.0
 20
0.0
 30
0.0
  0
VERTEX
  5
F7B
  8
0
 10
1744.638771143593
 20
1623.445261261004
 30
0.0
  0
VERTEX
  5
F7C
  8
0
 10
1699.595751098683
 20
1623.445261261004
 30
0.0
  0
VERTEX
  5
F7D
  8
0
 10
1699.595751098683
 20
1624.245261261004
 30
0.0
  0
VERTEX
  5
F7E
  8
0
 10
1744.638771143593
 20
1624.245261261004
 30
0.0
  0
SEQEND
  5
14FF
  8
0
  0
POLYLINE
  5
747
  8
0
 66
     1
 10
0.0
 20
0.0
 30
0.0
  0
VERTEX
  5
F7F
  8
0
 10
1744.638771143593
 20
1617.195261261004
 30
0.0
  0
VERTEX
  5
F80
  8
0
 10
1699.595751098683
 20
1617.195261261004
 30
0.0
  0
VERTEX
  5
F81
  8
0
 10
1699.595751098683
 20
1617.995261261004
 30
0.0
  0
VERTEX
  5
F82
  8
0
 10
1744.638771143593
 20
1617.995261261004
 30
0.0
  0
SEQEND
  5
1500
  8
0
  0
POLYLINE
  5
748
  8
0
 66
     1
 10
0.0
 20
0.0
 30
0.0
  0
VERTEX
  5
F83
  8
0
 10
1744.638771143593
 20
1610.945261261004
 30
0.0
  0
VERTEX
  5
F84
  8
0
 10
1699.595751098683
 20
1610.945261261004
 30
0.0
  0
VERTEX
  5
F85
  8
0
 10
1699.595751098683
 20
1611.745261261004
 30
0.0
  0
VERTEX
  5
F86
  8
0
 10
1744.638771143593
 20
1611.745261261004
 30
0.0
  0
SEQEND
  5
1501
  8
0
  0
POLYLINE
  5
749
  8
0
 66
     1
 10
0.0
 20
0.0
 30
0.0
  0
VERTEX
  5
F87
  8
0
 10
1744.638771143593
 20
1604.695261261004
 30
0.0
  0
VERTEX
  5
F88
  8
0
 10
1699.595751098683
 20
1604.695261261004
 30
0.0
  0
VERTEX
  5
F89
  8
0
 10
1699.595751098683
 20
1605.495261261004
 30
0.0
  0
VERTEX
  5
F8A
  8
0
 10
1744.638771143593
 20
1605.495261261004
 30
0.0
  0
SEQEND
  5
1502
  8
0
  0
POLYLINE
  5
74A
  8
0
 66
     1
 10
0.0
 20
0.0
 30
0.0
  0
VERTEX
  5
F8B
  8
0
 10
1633.954714662291
 20
1605.495261261004
 30
0.0
  0
VERTEX
  5
F8C
  8
0
 10
1639.595751098683
 20
1605.495261261004
 30
0.0
  0
VERTEX
  5
F8D
  8
0
 10
1639.595751098683
 20
1604.695261261004
 30
0.0
  0
VERTEX
  5
F8E
  8
0
 10
1633.223709463775
 20
1604.695261261004
 30
0.0
  0
SEQEND
  5
1503
  8
0
  0
POLYLINE
  5
74B
  8
0
 66
     1
 10
0.0
 20
0.0
 30
0.0
  0
VERTEX
  5
F8F
  8
0
 10
1619.170090187228
 20
1586.745261261004
 30
0.0
  0
VERTEX
  5
F90
  8
0
 10
1639.595751098683
 20
1586.745261261004
 30
0.0
  0
VERTEX
  5
F91
  8
0
 10
1639.595751098683
 20
1585.945261261004
 30
0.0
  0
VERTEX
  5
F92
  8
0
 10
1618.63616212177
 20
1585.945261261004
 30
0.0
  0
SEQEND
  5
1504
  8
0
  0
POLYLINE
  5
74C
  8
0
 66
     1
 10
0.0
 20
0.0
 30
0.0
  0
VERTEX
  5
F93
  8
0
 10
1615.181944791217
 20
1580.495261261004
 30
0.0
  0
VERTEX
  5
F94
  8
0
 10
1639.595751098683
 20
1580.495261261004
 30
0.0
  0
VERTEX
  5
F95
  8
0
 10
1639.595751098683
 20
1579.695261261004
 30
0.0
  0
VERTEX
  5
F96
  8
0
 10
1614.700899387066
 20
1579.695261261004
 30
0.0
  0
SEQEND
  5
1505
  8
0
  0
POLYLINE
  5
74D
  8
0
 66
     1
 10
0.0
 20
0.0
 30
0.0
  0
VERTEX
  5
F97
  8
0
 10
1611.591837703191
 20
1574.245261261004
 30
0.0
  0
VERTEX
  5
F98
  8
0
 10
1639.595751098683
 20
1574.245261261004
 30
0.0
  0
VERTEX
  5
F99
  8
0
 10
1639.595751098683
 20
1573.445261261004
 30
0.0
  0
VERTEX
  5
F9A
  8
0
 10
1611.159413813619
 20
1573.445261261004
 30
0.0
  0
SEQEND
  5
1506
  8
0
  0
POLYLINE
  5
74E
  8
0
 66
     1
 10
0.0
 20
0.0
 30
0.0
  0
VERTEX
  5
F9B
  8
0
 10
1608.369387290968
 20
1567.995261261004
 30
0.0
  0
VERTEX
  5
F9C
  8
0
 10
1639.595751098683
 20
1567.995261261004
 30
0.0
  0
VERTEX
  5
F9D
  8
0
 10
1639.595751098683
 20
1567.195261261004
 30
0.0
  0
VERTEX
  5
F9E
  8
0
 10
1607.982137307464
 20
1567.195261261004
 30
0.0
  0
SEQEND
  5
1507
  8
0
  0
POLYLINE
  5
74F
  8
0
 66
     1
 10
0.0
 20
0.0
 30
0.0
  0
VERTEX
  5
F9F
  8
0
 10
1605.489908979176
 20
1561.745261261004
 30
0.0
  0
VERTEX
  5
FA0
  8
0
 10
1639.595751098683
 20
1561.745261261004
 30
0.0
  0
VERTEX
  5
FA1
  8
0
 10
1639.595751098683
 20
1560.945261261004
 30
0.0
  0
VERTEX
  5
FA2
  8
0
 10
1605.14501722824
 20
1560.945261261004
 30
0.0
  0
SEQEND
  5
1508
  8
0
  0
POLYLINE
  5
750
  8
0
 66
     1
 10
0.0
 20
0.0
 30
0.0
  0
VERTEX
  5
FA3
  8
0
 10
1628.501764328315
 20
1599.245261261004
 30
0.0
  0
VERTEX
  5
FA4
  8
0
 10
1639.595751098683
 20
1599.245261261004
 30
0.0
  0
VERTEX
  5
FA5
  8
0
 10
1639.595751098683
 20
1598.445261261004
 30
0.0
  0
VERTEX
  5
FA6
  8
0
 10
1627.844608526238
 20
1598.445261261004
 30
0.0
  0
SEQEND
  5
1509
  8
0
  0
POLYLINE
  5
751
  8
0
 66
     1
 10
0.0
 20
0.0
 30
0.0
  0
VERTEX
  5
FA7
  8
0
 10
1623.593905033868
 20
1592.995005436086
 30
0.0
  0
VERTEX
  5
FA8
  8
0
 10
1639.595751098683
 20
1592.995261261004
 30
0.0
  0
VERTEX
  5
FA9
  8
0
 10
1639.595751098683
 20
1592.195261261004
 30
0.0
  0
VERTEX
  5
FAA
  8
0
 10
1623.001950072335
 20
1592.195261261004
 30
0.0
  0
SEQEND
  5
150A
  8
0
  0
POLYLINE
  5
752
  8
0
 66
     1
 10
0.0
 20
0.0
 30
0.0
  0
VERTEX
  5
FAB
  8
0
 10
1619.170090187228
 20
1586.745261261004
 30
0.0
  0
VERTEX
  5
FAC
  8
0
 10
1639.595751098683
 20
1586.745261261004
 30
0.0
  0
VERTEX
  5
FAD
  8
0
 10
1639.595751098683
 20
1585.945261261004
 30
0.0
  0
VERTEX
  5
FAE
  8
0
 10
1618.63616212177
 20
1585.945261261004
 30
0.0
  0
SEQEND
  5
150B
  8
0
  0
POLYLINE
  5
753
  8
0
 66
     1
 10
0.0
 20
0.0
 30
0.0
  0
VERTEX
  5
FAF
  8
0
 10
1615.181944791217
 20
1580.495261261004
 30
0.0
  0
VERTEX
  5
FB0
  8
0
 10
1639.595751098683
 20
1580.495261261004
 30
0.0
  0
VERTEX
  5
FB1
  8
0
 10
1639.595751098683
 20
1579.695261261004
 30
0.0
  0
VERTEX
  5
FB2
  8
0
 10
1614.700899387066
 20
1579.695261261004
 30
0.0
  0
SEQEND
  5
150C
  8
0
  0
POLYLINE
  5
754
  8
0
 66
     1
 10
0.0
 20
0.0
 30
0.0
  0
VERTEX
  5
FB3
  8
0
 10
1611.591837703191
 20
1574.245261261004
 30
0.0
  0
VERTEX
  5
FB4
  8
0
 10
1639.595751098683
 20
1574.245261261004
 30
0.0
  0
VERTEX
  5
FB5
  8
0
 10
1639.595751098683
 20
1573.445261261004
 30
0.0
  0
VERTEX
  5
FB6
  8
0
 10
1611.159413813619
 20
1573.445261261004
 30
0.0
  0
SEQEND
  5
150D
  8
0
  0
POLYLINE
  5
755
  8
0
 66
     1
 10
0.0
 20
0.0
 30
0.0
  0
VERTEX
  5
FB7
  8
0
 10
1608.369387290968
 20
1567.995261261004
 30
0.0
  0
VERTEX
  5
FB8
  8
0
 10
1639.595751098683
 20
1567.995261261004
 30
0.0
  0
VERTEX
  5
FB9
  8
0
 10
1639.595751098683
 20
1567.195261261004
 30
0.0
  0
VERTEX
  5
FBA
  8
0
 10
1607.982137307464
 20
1567.195261261004
 30
0.0
  0
SEQEND
  5
150E
  8
0
  0
POLYLINE
  5
756
  8
0
 66
     1
 10
0.0
 20
0.0
 30
0.0
  0
VERTEX
  5
FBB
  8
0
 10
1605.489908979176
 20
1561.745261261004
 30
0.0
  0
VERTEX
  5
FBC
  8
0
 10
1639.595751098683
 20
1561.745261261004
 30
0.0
  0
VERTEX
  5
FBD
  8
0
 10
1639.595751098683
 20
1560.945261261004
 30
0.0
  0
VERTEX
  5
FBE
  8
0
 10
1605.14501722824
 20
1560.945261261004
 30
0.0
  0
SEQEND
  5
150F
  8
0
  0
POLYLINE
  5
757
  8
0
 66
     1
 10
0.0
 20
0.0
 30
0.0
  0
VERTEX
  5
FBF
  8
0
 10
1602.933185660062
 20
1555.495261261004
 30
0.0
  0
VERTEX
  5
FC0
  8
0
 10
1639.595751098683
 20
1555.495261261004
 30
0.0
  0
VERTEX
  5
FC1
  8
0
 10
1639.595751098683
 20
1554.695261261004
 30
0.0
  0
VERTEX
  5
FC2
  8
0
 10
1602.628338448398
 20
1554.695261261004
 30
0.0
  0
SEQEND
  5
1510
  8
0
  0
ARC
  5
758
  8
0
 10
1749.489586113948
 20
1499.190541334517
 30
0.0
 40
157.0
 50
177.6985286484223
 51
177.9906886842608
  0
ARC
  5
759
  8
0
 10
1749.489586113948
 20
1499.190541334517
 30
0.0
 40
157.0
 50
95.3942131048909
 51
97.91396942783709
  0
ARC
  5
75A
  8
0
 10
1749.489586113948
 20
1499.190541334517
 30
0.0
 40
157.0
 50
102.753896093067
 51
104.0151392351791
  0
ARC
  5
75B
  8
0
 10
1749.489586113948
 20
1499.190541334517
 30
0.0
 40
157.0
 50
107.1059358016522
 51
108.0720807805247
  0
ARC
  5
75C
  8
0
 10
1749.489586113948
 20
1499.190541334517
 30
0.0
 40
157.0
 50
110.6922339742881
 51
111.5033102705511
  0
ARC
  5
75D
  8
0
 10
1749.489586113948
 20
1499.190541334517
 30
0.0
 40
157.0
 50
113.6584797924048
 51
114.3757963421666
  0
ARC
  5
75E
  8
0
 10
1749.489586113948
 20
1499.190541334517
 30
0.0
 40
157.0
 50
116.4037037498886
 51
117.0528382623575
  0
ARC
  5
75F
  8
0
 10
1749.489586113948
 20
1499.190541334517
 30
0.0
 40
157.0
 50
118.8192571393329
 51
119.4192101801282
  0
ARC
  5
760
  8
0
 10
1749.489586113948
 20
1499.190541334517
 30
0.0
 40
157.0
 50
121.1435639841279
 51
121.7035491945223
  0
ARC
  5
761
  8
0
 10
1749.489586113948
 20
1499.190541334517
 30
0.0
 40
157.0
 50
123.2448123543016
 51
123.7736463141546
  0
ARC
  5
762
  8
0
 10
1749.489586113948
 20
1499.190541334517
 30
0.0
 40
157.0
 50
125.3286868743198
 51
125.8304698387007
  0
ARC
  5
763
  8
0
 10
1749.489586113948
 20
1499.190541334517
 30
0.0
 40
157.0
 50
127.2002880431005
 51
127.6805259319603
  0
ARC
  5
764
  8
0
 10
1749.489586113948
 20
1499.190541334517
 30
0.0
 40
157.0
 50
129.1006503287336
 51
129.5612912717428
  0
ARC
  5
765
  8
0
 10
1749.489586113948
 20
1499.190541334517
 30
0.0
 40
157.0
 50
130.8242913039286
 51
131.2688869778133
  0
ARC
  5
766
  8
0
 10
1749.489586113948
 20
1499.190541334517
 30
0.0
 40
157.0
 50
132.5887200118823
 51
133.018387952707
  0
ARC
  5
767
  8
0
 10
1749.489586113948
 20
1499.190541334517
 30
0.0
 40
157.0
 50
134.2001284971489
 51
134.6173408977742
  0
ARC
  5
768
  8
0
 10
1749.489586113948
 20
1499.190541334517
 30
0.0
 40
157.0
 50
135.8594059525242
 51
136.2648449604687
  0
ARC
  5
769
  8
0
 10
1749.489586113948
 20
1499.190541334517
 30
0.0
 40
157.0
 50
137.3825497712346
 51
137.7780311663486
  0
ARC
  5
76A
  8
0
 10
1749.489586113948
 20
1499.190541334517
 30
0.0
 40
157.0
 50
138.7941672663563
 51
139.1810821966965
  0
ARC
  5
76B
  8
0
 10
1749.489586113948
 20
1499.190541334517
 30
0.0
 40
157.0
 50
140.4098728905626
 51
140.7876986225198
  0
ARC
  5
76C
  8
0
 10
1749.489586113948
 20
1499.190541334517
 30
0.0
 40
157.0
 50
141.7599810747779
 51
142.130751803899
  0
ARC
  5
76D
  8
0
 10
1749.489586113948
 20
1499.190541334517
 30
0.0
 40
157.0
 50
143.3103242875297
 51
143.6734371357117
  0
ARC
  5
76E
  8
0
 10
1749.489586113948
 20
1499.190541334517
 30
0.0
 40
157.0
 50
144.609344860164
 51
144.9666824489265
  0
ARC
  5
76F
  8
0
 10
1749.489586113948
 20
1499.190541334517
 30
0.0
 40
157.0
 50
146.1049516329358
 51
146.4559564788404
  0
ARC
  5
770
  8
0
 10
1749.489586113948
 20
1499.190541334517
 30
0.0
 40
157.0
 50
147.3613264603381
 51
147.7073604049761
  0
ARC
  5
771
  8
0
 10
1749.489586113948
 20
1499.190541334517
 30
0.0
 40
157.0
 50
147.3613264603381
 51
147.7073604049761
  0
ARC
  5
772
  8
0
 10
1749.489586113948
 20
1499.190541334517
 30
0.0
 40
157.0
 50
148.8108877173808
 51
149.1515574612263
  0
ARC
  5
773
  8
0
 10
1749.489586113948
 20
1499.190541334517
 30
0.0
 40
157.0
 50
150.0310646800069
 51
150.3675098736827
  0
ARC
  5
774
  8
0
 10
1749.489586113948
 20
1499.190541334517
 30
0.0
 40
157.0
 50
150.0310646800069
 51
150.3675098736827
  0
ARC
  5
775
  8
0
 10
1749.489586113948
 20
1499.190541334517
 30
0.0
 40
157.0
 50
151.4415168435594
 51
151.7733912995333
  0
ARC
  5
776
  8
0
 10
1749.489586113948
 20
1499.190541334517
 30
0.0
 40
157.0
 50
152.6308642701135
 51
152.9591318007486
  0
ARC
  5
777
  8
0
 10
1749.489586113948
 20
1499.190541334517
 30
0.0
 40
157.0
 50
154.0079377521738
 51
154.3322973934065
  0
ARC
  5
778
  8
0
 10
1749.489586113948
 20
1499.190541334517
 30
0.0
 40
157.0
 50
155.1709334914082
 51
155.4922068477451
  0
ARC
  5
779
  8
0
 10
1749.489586113948
 20
1499.190541334517
 30
0.0
 40
157.0
 50
156.5194517620936
 51
156.837380811362
  0
ARC
  5
77A
  8
0
 10
1749.489586113948
 20
1499.190541334517
 30
0.0
 40
157.0
 50
157.6598979623042
 51
157.9751870849264
  0
ARC
  5
77B
  8
0
 10
1749.489586113948
 20
1499.190541334517
 30
0.0
 40
157.0
 50
158.9839908585273
 51
159.2964227134303
  0
ARC
  5
77C
  8
0
 10
1749.489586113948
 20
1499.190541334517
 30
0.0
 40
157.0
 50
160.1051692717558
 51
160.415349944093
  0
ARC
  5
77D
  8
0
 10
1749.489586113948
 20
1499.190541334517
 30
0.0
 40
157.0
 50
161.4084292350925
 51
161.7161800236303
  0
ARC
  5
77E
  8
0
 10
1749.489586113948
 20
1499.190541334517
 30
0.0
 40
157.0
 50
162.6160427340658
 51
162.9217154195423
  0
ARC
  5
77F
  8
0
 10
1749.489586113948
 20
1499.190541334517
 30
0.0
 40
157.0
 50
163.7988157143846
 51
164.1026096766145
  0
ARC
  5
780
  8
0
 10
1749.489586113948
 20
1499.190541334517
 30
0.0
 40
157.0
 50
164.9913613579573
 51
165.2934135117563
  0
ARC
  5
781
  8
0
 10
1749.489586113948
 20
1499.190541334517
 30
0.0
 40
157.0
 50
166.1605512180895
 51
166.4610403451059
  0
ARC
  5
782
  8
0
 10
1749.489586113948
 20
1499.190541334517
 30
0.0
 40
157.0
 50
167.3405484173679
 51
167.6396017397753
  0
ARC
  5
783
  8
0
 10
1749.489586113948
 20
1499.190541334517
 30
0.0
 40
157.0
 50
168.498527373668
 51
168.7963069498086
  0
ARC
  5
784
  8
0
 10
1749.489586113948
 20
1499.190541334517
 30
0.0
 40
157.0
 50
169.668282418779
 51
169.9649085549294
  0
ARC
  5
785
  8
0
 10
1749.489586113948
 20
1499.190541334517
 30
0.0
 40
157.0
 50
170.8172372705515
 51
171.1128584638248
  0
ARC
  5
786
  8
0
 10
1749.489586113948
 20
1499.190541334517
 30
0.0
 40
157.0
 50
171.9788911010969
 51
172.2736230705599
  0
ARC
  5
787
  8
0
 10
1749.489586113948
 20
1499.190541334517
 30
0.0
 40
157.0
 50
173.1208661126826
 51
173.4148464322992
  0
ARC
  5
788
  8
0
 10
1749.489586113948
 20
1499.190541334517
 30
0.0
 40
157.0
 50
174.2764341898549
 51
174.5697760088757
  0
ARC
  5
789
  8
0
 10
1749.489586113948
 20
1499.190541334517
 30
0.0
 40
157.0
 50
175.4133673742201
 51
175.7061995986317
  0
ARC
  5
78A
  8
0
 10
1749.489586113948
 20
1499.190541334517
 30
0.0
 40
157.0
 50
176.5647739068477
 51
176.8572089273359
  0
POLYLINE
  5
78B
  8
0
 66
     1
 10
0.0
 20
0.0
 30
0.0
 70
     1
  0
VERTEX
  5
FC3
  8
0
 10
1715.169923876079
 20
1546.024093548865
 30
0.0
  0
VERTEX
  5
FC4
  8
0
 10
1715.169923876079
 20
1545.224093548865
 30
0.0
  0
VERTEX
  5
FC5
  8
0
 10
1675.169923876079
 20
1545.224093548865
 30
0.0
  0
VERTEX
  5
FC6
  8
0
 10
1675.169923876079
 20
1546.024093548865
 30
0.0
  0
SEQEND
  5
1511
  8
0
  0
POLYLINE
  5
78C
  8
0
 66
     1
 10
0.0
 20
0.0
 30
0.0
 70
     1
  0
VERTEX
  5
FC7
  8
0
 10
1715.169923876079
 20
1539.774093548865
 30
0.0
  0
VERTEX
  5
FC8
  8
0
 10
1715.169923876079
 20
1538.974093548865
 30
0.0
  0
VERTEX
  5
FC9
  8
0
 10
1675.169923876079
 20
1538.974093548865
 30
0.0
  0
VERTEX
  5
FCA
  8
0
 10
1675.169923876079
 20
1539.774093548865
 30
0.0
  0
SEQEND
  5
1512
  8
0
  0
POLYLINE
  5
78D
  8
0
 66
     1
 10
0.0
 20
0.0
 30
0.0
 70
     1
  0
VERTEX
  5
FCB
  8
0
 10
1715.169923876079
 20
1533.524093548865
 30
0.0
  0
VERTEX
  5
FCC
  8
0
 10
1715.169923876079
 20
1532.724093548865
 30
0.0
  0
VERTEX
  5
FCD
  8
0
 10
1675.169923876079
 20
1532.724093548865
 30
0.0
  0
VERTEX
  5
FCE
  8
0
 10
1675.169923876079
 20
1533.524093548865
 30
0.0
  0
SEQEND
  5
1513
  8
0
  0
POLYLINE
  5
78E
  8
0
 66
     1
 10
0.0
 20
0.0
 30
0.0
 70
     1
  0
VERTEX
  5
FCF
  8
0
 10
1715.169923876079
 20
1527.274093548865
 30
0.0
  0
VERTEX
  5
FD0
  8
0
 10
1715.169923876079
 20
1526.474093548865
 30
0.0
  0
VERTEX
  5
FD1
  8
0
 10
1675.169923876079
 20
1526.474093548865
 30
0.0
  0
VERTEX
  5
FD2
  8
0
 10
1675.169923876079
 20
1527.274093548865
 30
0.0
  0
SEQEND
  5
1514
  8
0
  0
POLYLINE
  5
78F
  8
0
 66
     1
 10
0.0
 20
0.0
 30
0.0
 70
     1
  0
VERTEX
  5
FD3
  8
0
 10
1715.169923876079
 20
1521.024093548865
 30
0.0
  0
VERTEX
  5
FD4
  8
0
 10
1715.169923876079
 20
1520.224093548865
 30
0.0
  0
VERTEX
  5
FD5
  8
0
 10
1675.169923876079
 20
1520.224093548865
 30
0.0
  0
VERTEX
  5
FD6
  8
0
 10
1675.169923876079
 20
1521.024093548865
 30
0.0
  0
SEQEND
  5
1515
  8
0
  0
POLYLINE
  5
790
  8
0
 66
     1
 10
0.0
 20
0.0
 30
0.0
 70
     1
  0
VERTEX
  5
FD7
  8
0
 10
1715.169923876079
 20
1514.774093548865
 30
0.0
  0
VERTEX
  5
FD8
  8
0
 10
1715.169923876079
 20
1513.974093548865
 30
0.0
  0
VERTEX
  5
FD9
  8
0
 10
1675.169923876079
 20
1513.974093548865
 30
0.0
  0
VERTEX
  5
FDA
  8
0
 10
1675.169923876079
 20
1514.774093548865
 30
0.0
  0
SEQEND
  5
1516
  8
0
  0
POLYLINE
  5
791
  8
0
 66
     1
 10
0.0
 20
0.0
 30
0.0
 70
     1
  0
VERTEX
  5
FDB
  8
0
 10
1715.169923876079
 20
1508.524093548865
 30
0.0
  0
VERTEX
  5
FDC
  8
0
 10
1715.169923876079
 20
1507.724093548865
 30
0.0
  0
VERTEX
  5
FDD
  8
0
 10
1675.169923876079
 20
1507.724093548865
 30
0.0
  0
VERTEX
  5
FDE
  8
0
 10
1675.169923876079
 20
1508.524093548865
 30
0.0
  0
SEQEND
  5
1517
  8
0
  0
POLYLINE
  5
792
  8
0
 66
     1
 10
0.0
 20
0.0
 30
0.0
 70
     1
  0
VERTEX
  5
FDF
  8
0
 10
1662.226925424227
 20
1546.097995694177
 30
0.0
  0
VERTEX
  5
FE0
  8
0
 10
1662.226925424227
 20
1545.297995694177
 30
0.0
  0
VERTEX
  5
FE1
  8
0
 10
1622.226925424227
 20
1545.297995694177
 30
0.0
  0
VERTEX
  5
FE2
  8
0
 10
1622.226925424227
 20
1546.097995694177
 30
0.0
  0
SEQEND
  5
1518
  8
0
  0
POLYLINE
  5
793
  8
0
 66
     1
 10
0.0
 20
0.0
 30
0.0
 70
     1
  0
VERTEX
  5
FE3
  8
0
 10
1662.226925424227
 20
1539.847995694177
 30
0.0
  0
VERTEX
  5
FE4
  8
0
 10
1662.226925424227
 20
1539.047995694177
 30
0.0
  0
VERTEX
  5
FE5
  8
0
 10
1622.226925424227
 20
1539.047995694177
 30
0.0
  0
VERTEX
  5
FE6
  8
0
 10
1622.226925424227
 20
1539.847995694177
 30
0.0
  0
SEQEND
  5
1519
  8
0
  0
POLYLINE
  5
794
  8
0
 66
     1
 10
0.0
 20
0.0
 30
0.0
 70
     1
  0
VERTEX
  5
FE7
  8
0
 10
1662.226925424227
 20
1533.597995694177
 30
0.0
  0
VERTEX
  5
FE8
  8
0
 10
1662.226925424227
 20
1532.797995694177
 30
0.0
  0
VERTEX
  5
FE9
  8
0
 10
1622.226925424227
 20
1532.797995694177
 30
0.0
  0
VERTEX
  5
FEA
  8
0
 10
1622.226925424227
 20
1533.597995694177
 30
0.0
  0
SEQEND
  5
151A
  8
0
  0
POLYLINE
  5
795
  8
0
 66
     1
 10
0.0
 20
0.0
 30
0.0
 70
     1
  0
VERTEX
  5
FEB
  8
0
 10
1662.226925424227
 20
1527.347995694177
 30
0.0
  0
VERTEX
  5
FEC
  8
0
 10
1662.226925424227
 20
1526.547995694177
 30
0.0
  0
VERTEX
  5
FED
  8
0
 10
1622.226925424227
 20
1526.547995694177
 30
0.0
  0
VERTEX
  5
FEE
  8
0
 10
1622.226925424227
 20
1527.347995694177
 30
0.0
  0
SEQEND
  5
151B
  8
0
  0
POLYLINE
  5
796
  8
0
 66
     1
 10
0.0
 20
0.0
 30
0.0
 70
     1
  0
VERTEX
  5
FEF
  8
0
 10
1662.226925424227
 20
1521.097995694177
 30
0.0
  0
VERTEX
  5
FF0
  8
0
 10
1662.226925424227
 20
1520.297995694177
 30
0.0
  0
VERTEX
  5
FF1
  8
0
 10
1622.226925424227
 20
1520.297995694177
 30
0.0
  0
VERTEX
  5
FF2
  8
0
 10
1622.226925424227
 20
1521.097995694177
 30
0.0
  0
SEQEND
  5
151C
  8
0
  0
POLYLINE
  5
797
  8
0
 66
     1
 10
0.0
 20
0.0
 30
0.0
 70
     1
  0
VERTEX
  5
FF3
  8
0
 10
1662.226925424227
 20
1514.847995694177
 30
0.0
  0
VERTEX
  5
FF4
  8
0
 10
1662.226925424227
 20
1514.047995694177
 30
0.0
  0
VERTEX
  5
FF5
  8
0
 10
1622.226925424227
 20
1514.047995694177
 30
0.0
  0
VERTEX
  5
FF6
  8
0
 10
1622.226925424227
 20
1514.847995694177
 30
0.0
  0
SEQEND
  5
151D
  8
0
  0
POLYLINE
  5
798
  8
0
 66
     1
 10
0.0
 20
0.0
 30
0.0
 70
     1
  0
VERTEX
  5
FF7
  8
0
 10
1662.226925424227
 20
1508.597995694177
 30
0.0
  0
VERTEX
  5
FF8
  8
0
 10
1662.226925424227
 20
1507.797995694177
 30
0.0
  0
VERTEX
  5
FF9
  8
0
 10
1622.226925424227
 20
1507.797995694177
 30
0.0
  0
VERTEX
  5
FFA
  8
0
 10
1622.226925424227
 20
1508.597995694177
 30
0.0
  0
SEQEND
  5
151E
  8
0
  0
POLYLINE
  5
799
  8
0
 66
     1
 10
0.0
 20
0.0
 30
0.0
  0
VERTEX
  5
FFB
  8
0
 10
1694.013942592728
 20
1646.062774843464
 30
0.0
  0
VERTEX
  5
FFC
  8
0
 10
1715.169923876079
 20
1646.062774843464
 30
0.0
  0
VERTEX
  5
FFD
  8
0
 10
1715.169923876079
 20
1645.262774843463
 30
0.0
  0
VERTEX
  5
FFE
  8
0
 10
1691.94045408133
 20
1645.262774843463
 30
0.0
  0
SEQEND
  5
151F
  8
0
  0
POLYLINE
  5
79A
  8
0
 66
     1
 10
0.0
 20
0.0
 30
0.0
  0
VERTEX
  5
FFF
  8
0
 10
1679.672772645019
 20
1639.812774843464
 30
0.0
  0
VERTEX
  5
1000
  8
0
 10
1715.169923876079
 20
1639.812774843464
 30
0.0
  0
VERTEX
  5
1001
  8
0
 10
1715.169923876079
 20
1639.012774843463
 30
0.0
  0
VERTEX
  5
1002
  8
0
 10
1678.084103015173
 20
1639.012774843463
 30
0.0
  0
SEQEND
  5
1520
  8
0
  0
POLYLINE
  5
79B
  8
0
 66
     1
 10
0.0
 20
0.0
 30
0.0
  0
VERTEX
  5
1003
  8
0
 10
1668.291662114519
 20
1633.562774843464
 30
0.0
  0
VERTEX
  5
1004
  8
0
 10
1715.169923876079
 20
1633.562774843464
 30
0.0
  0
VERTEX
  5
1005
  8
0
 10
1715.169923876079
 20
1632.762774843463
 30
0.0
  0
VERTEX
  5
1006
  8
0
 10
1666.982262587904
 20
1632.762774843463
 30
0.0
  0
SEQEND
  5
1521
  8
0
  0
POLYLINE
  5
79C
  8
0
 66
     1
 10
0.0
 20
0.0
 30
0.0
 70
     1
  0
VERTEX
  5
1007
  8
0
 10
1715.169923876079
 20
1627.312774843464
 30
0.0
  0
VERTEX
  5
1008
  8
0
 10
1715.169923876079
 20
1626.512774843463
 30
0.0
  0
VERTEX
  5
1009
  8
0
 10
1675.169923876079
 20
1626.512774843463
 30
0.0
  0
VERTEX
  5
100A
  8
0
 10
1675.169923876079
 20
1627.312774843464
 30
0.0
  0
SEQEND
  5
1522
  8
0
  0
POLYLINE
  5
79D
  8
0
 66
     1
 10
0.0
 20
0.0
 30
0.0
 70
     1
  0
VERTEX
  5
100B
  8
0
 10
1715.169923876079
 20
1621.062774843464
 30
0.0
  0
VERTEX
  5
100C
  8
0
 10
1715.169923876079
 20
1620.262774843463
 30
0.0
  0
VERTEX
  5
100D
  8
0
 10
1675.169923876079
 20
1620.262774843463
 30
0.0
  0
VERTEX
  5
100E
  8
0
 10
1675.169923876079
 20
1621.062774843464
 30
0.0
  0
SEQEND
  5
1523
  8
0
  0
POLYLINE
  5
79E
  8
0
 66
     1
 10
0.0
 20
0.0
 30
0.0
 70
     1
  0
VERTEX
  5
100F
  8
0
 10
1715.169923876079
 20
1614.812774843464
 30
0.0
  0
VERTEX
  5
1010
  8
0
 10
1715.169923876079
 20
1614.012774843463
 30
0.0
  0
VERTEX
  5
1011
  8
0
 10
1675.169923876079
 20
1614.012774843463
 30
0.0
  0
VERTEX
  5
1012
  8
0
 10
1675.169923876079
 20
1614.812774843464
 30
0.0
  0
SEQEND
  5
1524
  8
0
  0
POLYLINE
  5
79F
  8
0
 66
     1
 10
0.0
 20
0.0
 30
0.0
 70
     1
  0
VERTEX
  5
1013
  8
0
 10
1715.169923876079
 20
1608.562774843464
 30
0.0
  0
VERTEX
  5
1014
  8
0
 10
1715.169923876079
 20
1607.762774843463
 30
0.0
  0
VERTEX
  5
1015
  8
0
 10
1675.169923876079
 20
1607.762774843463
 30
0.0
  0
VERTEX
  5
1016
  8
0
 10
1675.169923876079
 20
1608.562774843464
 30
0.0
  0
SEQEND
  5
1525
  8
0
  0
POLYLINE
  5
7A0
  8
0
 66
     1
 10
0.0
 20
0.0
 30
0.0
  0
VERTEX
  5
1017
  8
0
 10
1658.701796475675
 20
1627.278703365973
 30
0.0
  0
VERTEX
  5
1018
  8
0
 10
1662.378824920261
 20
1627.278703365973
 30
0.0
  0
VERTEX
  5
1019
  8
0
 10
1662.378824920261
 20
1626.478703365973
 30
0.0
  0
VERTEX
  5
101A
  8
0
 10
1657.583526429869
 20
1626.478703365973
 30
0.0
  0
SEQEND
  5
1526
  8
0
  0
POLYLINE
  5
7A1
  8
0
 66
     1
 10
0.0
 20
0.0
 30
0.0
  0
VERTEX
  5
101B
  8
0
 10
1650.472101431714
 20
1621.028703365973
 30
0.0
  0
VERTEX
  5
101C
  8
0
 10
1662.378824920261
 20
1621.028703365973
 30
0.0
  0
VERTEX
  5
101D
  8
0
 10
1662.378824920261
 20
1620.228703365973
 30
0.0
  0
VERTEX
  5
101E
  8
0
 10
1649.495769644894
 20
1620.228703365973
 30
0.0
  0
SEQEND
  5
1527
  8
0
  0
POLYLINE
  5
7A2
  8
0
 66
     1
 10
0.0
 20
0.0
 30
0.0
  0
VERTEX
  5
101F
  8
0
 10
1643.242812994998
 20
1614.778703365973
 30
0.0
  0
VERTEX
  5
1020
  8
0
 10
1662.378824920261
 20
1614.778703365973
 30
0.0
  0
VERTEX
  5
1021
  8
0
 10
1662.378824920261
 20
1613.978703365973
 30
0.0
  0
VERTEX
  5
1022
  8
0
 10
1642.378999067475
 20
1613.978703365973
 30
0.0
  0
SEQEND
  5
1528
  8
0
  0
POLYLINE
  5
7A3
  8
0
 66
     1
 10
0.0
 20
0.0
 30
0.0
  0
VERTEX
  5
1023
  8
0
 10
1636.821195144773
 20
1608.528703365973
 30
0.0
  0
VERTEX
  5
1024
  8
0
 10
1662.378824920261
 20
1608.528703365973
 30
0.0
  0
VERTEX
  5
1025
  8
0
 10
1662.378824920261
 20
1607.728703365973
 30
0.0
  0
VERTEX
  5
1026
  8
0
 10
1636.050318737817
 20
1607.728703365973
 30
0.0
  0
SEQEND
  5
1529
  8
0
  0
POLYLINE
  5
7A4
  8
0
 66
     1
 10
0.0
 20
0.0
 30
0.0
  0
VERTEX
  5
1027
  8
0
 10
1607.001948458306
 20
1565.116811631829
 30
0.0
  0
VERTEX
  5
1028
  8
0
 10
1612.281084683875
 20
1565.116811631829
 30
0.0
  0
VERTEX
  5
1029
  8
0
 10
1612.281084683875
 20
1564.316811631829
 30
0.0
  0
VERTEX
  5
102A
  8
0
 10
1606.634523490458
 20
1564.316811631829
 30
0.0
  0
SEQEND
  5
152A
  8
0
  0
POLYLINE
  5
7A5
  8
0
 66
     1
 10
0.0
 20
0.0
 30
0.0
  0
VERTEX
  5
102B
  8
0
 10
1604.273392928057
 20
1558.866811631829
 30
0.0
  0
VERTEX
  5
102C
  8
0
 10
1612.281084683875
 20
1558.866811631829
 30
0.0
  0
VERTEX
  5
102D
  8
0
 10
1612.281084683875
 20
1558.066811631829
 30
0.0
  0
VERTEX
  5
102E
  8
0
 10
1603.947204671711
 20
1558.066811631829
 30
0.0
  0
SEQEND
  5
152B
  8
0
  0
POLYLINE
  5
7A6
  8
0
 66
     1
 10
0.0
 20
0.0
 30
0.0
  0
VERTEX
  5
102F
  8
0
 10
1601.859529410991
 20
1552.616811631829
 30
0.0
  0
VERTEX
  5
1030
  8
0
 10
1612.281084683875
 20
1552.616811631829
 30
0.0
  0
VERTEX
  5
1031
  8
0
 10
1612.281084683875
 20
1551.816811631829
 30
0.0
  0
VERTEX
  5
1032
  8
0
 10
1601.57246176861
 20
1551.816811631829
 30
0.0
  0
SEQEND
  5
152C
  8
0
  0
POLYLINE
  5
7A7
  8
0
 66
     1
 10
0.0
 20
0.0
 30
0.0
  0
VERTEX
  5
1033
  8
0
 10
1599.660714645542
 20
1546.097995694177
 30
0.0
  0
VERTEX
  5
1034
  8
0
 10
1612.226925424227
 20
1546.097995694177
 30
0.0
  0
VERTEX
  5
1035
  8
0
 10
1612.226925424227
 20
1545.297995694177
 30
0.0
  0
VERTEX
  5
1036
  8
0
 10
1599.412597030106
 20
1545.297995694177
 30
0.0
  0
SEQEND
  5
152D
  8
0
  0
POLYLINE
  5
7A8
  8
0
 66
     1
 10
0.0
 20
0.0
 30
0.0
  0
VERTEX
  5
1037
  8
0
 10
1597.845359698987
 20
1539.847995694177
 30
0.0
  0
VERTEX
  5
1038
  8
0
 10
1612.226925424227
 20
1539.847995694177
 30
0.0
  0
VERTEX
  5
1039
  8
0
 10
1612.226925424227
 20
1539.047995694177
 30
0.0
  0
VERTEX
  5
103A
  8
0
 10
1597.633129774524
 20
1539.047995694177
 30
0.0
  0
SEQEND
  5
152E
  8
0
  0
POLYLINE
  5
7A9
  8
0
 66
     1
 10
0.0
 20
0.0
 30
0.0
  0
VERTEX
  5
103B
  8
0
 10
1596.306274083924
 20
1533.597995694177
 30
0.0
  0
VERTEX
  5
103C
  8
0
 10
1612.226925424227
 20
1533.597995694177
 30
0.0
  0
VERTEX
  5
103D
  8
0
 10
1612.226925424227
 20
1532.797995694177
 30
0.0
  0
VERTEX
  5
103E
  8
0
 10
1596.128772959273
 20
1532.797995694177
 30
0.0
  0
SEQEND
  5
152F
  8
0
  0
POLYLINE
  5
7AA
  8
0
 66
     1
 10
0.0
 20
0.0
 30
0.0
  0
VERTEX
  5
103F
  8
0
 10
1595.035198788811
 20
1527.347995694177
 30
0.0
  0
VERTEX
  5
1040
  8
0
 10
1612.226925424227
 20
1527.347995694177
 30
0.0
  0
VERTEX
  5
1041
  8
0
 10
1612.226925424227
 20
1526.547995694177
 30
0.0
  0
VERTEX
  5
1042
  8
0
 10
1594.891495275287
 20
1526.547995694177
 30
0.0
  0
SEQEND
  5
1530
  8
0
  0
POLYLINE
  5
7AB
  8
0
 66
     1
 10
0.0
 20
0.0
 30
0.0
  0
VERTEX
  5
1043
  8
0
 10
1594.025559910201
 20
1521.097995694177
 30
0.0
  0
VERTEX
  5
1044
  8
0
 10
1612.226925424227
 20
1521.097995694177
 30
0.0
  0
VERTEX
  5
1045
  8
0
 10
1612.226925424227
 20
1520.297995694177
 30
0.0
  0
VERTEX
  5
1046
  8
0
 10
1593.914924390213
 20
1520.297995694177
 30
0.0
  0
SEQEND
  5
1531
  8
0
  0
POLYLINE
  5
7AC
  8
0
 66
     1
 10
0.0
 20
0.0
 30
0.0
  0
VERTEX
  5
1047
  8
0
 10
1593.272288342622
 20
1514.847995694177
 30
0.0
  0
VERTEX
  5
1048
  8
0
 10
1612.226925424227
 20
1514.847995694177
 30
0.0
  0
VERTEX
  5
1049
  8
0
 10
1612.226925424227
 20
1514.047995694177
 30
0.0
  0
VERTEX
  5
104A
  8
0
 10
1593.194173353527
 20
1514.047995694177
 30
0.0
  0
SEQEND
  5
1532
  8
0
  0
POLYLINE
  5
7AD
  8
0
 66
     1
 10
0.0
 20
0.0
 30
0.0
  0
VERTEX
  5
104B
  8
0
 10
1592.771687319743
 20
1508.597995694177
 30
0.0
  0
VERTEX
  5
104C
  8
0
 10
1612.226925424227
 20
1508.597995694177
 30
0.0
  0
VERTEX
  5
104D
  8
0
 10
1612.226925424227
 20
1507.797995694177
 30
0.0
  0
VERTEX
  5
104E
  8
0
 10
1592.725713587635
 20
1507.797995694177
 30
0.0
  0
SEQEND
  5
1533
  8
0
  0
POLYLINE
  5
7AE
  8
0
 66
     1
 10
0.0
 20
0.0
 30
0.0
  0
VERTEX
  5
104F
  8
0
 10
1744.638771143593
 20
1601.628426973063
 30
0.0
  0
VERTEX
  5
1050
  8
0
 10
1725.169923876079
 20
1601.628426973063
 30
0.0
  0
VERTEX
  5
1051
  8
0
 10
1725.169923876079
 20
1602.428426973062
 30
0.0
  0
VERTEX
  5
1052
  8
0
 10
1744.638771143593
 20
1602.428426973062
 30
0.0
  0
SEQEND
  5
1534
  8
0
  0
POLYLINE
  5
7AF
  8
0
 66
     1
 10
0.0
 20
0.0
 30
0.0
  0
VERTEX
  5
1053
  8
0
 10
1744.638771143593
 20
1595.378426973063
 30
0.0
  0
VERTEX
  5
1054
  8
0
 10
1725.169923876079
 20
1595.378426973063
 30
0.0
  0
VERTEX
  5
1055
  8
0
 10
1725.169923876079
 20
1596.178426973062
 30
0.0
  0
VERTEX
  5
1056
  8
0
 10
1744.638771143593
 20
1596.178426973062
 30
0.0
  0
SEQEND
  5
1535
  8
0
  0
POLYLINE
  5
7B0
  8
0
 66
     1
 10
0.0
 20
0.0
 30
0.0
  0
VERTEX
  5
1057
  8
0
 10
1744.638771143593
 20
1589.128426973063
 30
0.0
  0
VERTEX
  5
1058
  8
0
 10
1725.169923876079
 20
1589.128426973063
 30
0.0
  0
VERTEX
  5
1059
  8
0
 10
1725.169923876079
 20
1589.928426973062
 30
0.0
  0
VERTEX
  5
105A
  8
0
 10
1744.638771143593
 20
1589.928426973062
 30
0.0
  0
SEQEND
  5
1536
  8
0
  0
POLYLINE
  5
7B1
  8
0
 66
     1
 10
0.0
 20
0.0
 30
0.0
  0
VERTEX
  5
105B
  8
0
 10
1744.638771143593
 20
1582.878426973063
 30
0.0
  0
VERTEX
  5
105C
  8
0
 10
1725.169923876079
 20
1582.878426973063
 30
0.0
  0
VERTEX
  5
105D
  8
0
 10
1725.169923876079
 20
1583.678426973062
 30
0.0
  0
VERTEX
  5
105E
  8
0
 10
1744.638771143593
 20
1583.678426973062
 30
0.0
  0
SEQEND
  5
1537
  8
0
  0
POLYLINE
  5
7B2
  8
0
 66
     1
 10
0.0
 20
0.0
 30
0.0
  0
VERTEX
  5
105F
  8
0
 10
1744.638771143593
 20
1576.628426973063
 30
0.0
  0
VERTEX
  5
1060
  8
0
 10
1725.169923876079
 20
1576.628426973063
 30
0.0
  0
VERTEX
  5
1061
  8
0
 10
1725.169923876079
 20
1577.428426973062
 30
0.0
  0
VERTEX
  5
1062
  8
0
 10
1744.638771143593
 20
1577.428426973062
 30
0.0
  0
SEQEND
  5
1538
  8
0
  0
POLYLINE
  5
7B3
  8
0
 66
     1
 10
0.0
 20
0.0
 30
0.0
  0
VERTEX
  5
1063
  8
0
 10
1744.638771143593
 20
1570.378426973063
 30
0.0
  0
VERTEX
  5
1064
  8
0
 10
1725.169923876079
 20
1570.378426973063
 30
0.0
  0
VERTEX
  5
1065
  8
0
 10
1725.169923876079
 20
1571.178426973062
 30
0.0
  0
VERTEX
  5
1066
  8
0
 10
1744.638771143593
 20
1571.178426973062
 30
0.0
  0
SEQEND
  5
1539
  8
0
  0
POLYLINE
  5
7B4
  8
0
 66
     1
 10
0.0
 20
0.0
 30
0.0
  0
VERTEX
  5
1067
  8
0
 10
1744.638771143593
 20
1564.128426973063
 30
0.0
  0
VERTEX
  5
1068
  8
0
 10
1725.169923876079
 20
1564.128426973063
 30
0.0
  0
VERTEX
  5
1069
  8
0
 10
1725.169923876079
 20
1564.928426973062
 30
0.0
  0
VERTEX
  5
106A
  8
0
 10
1744.638771143593
 20
1564.928426973062
 30
0.0
  0
SEQEND
  5
153A
  8
0
  0
POLYLINE
  5
7B5
  8
0
 66
     1
 10
0.0
 20
0.0
 30
0.0
  0
VERTEX
  5
106B
  8
0
 10
1744.638771143593
 20
1557.878426973063
 30
0.0
  0
VERTEX
  5
106C
  8
0
 10
1725.169923876079
 20
1557.878426973063
 30
0.0
  0
VERTEX
  5
106D
  8
0
 10
1725.169923876079
 20
1558.678426973062
 30
0.0
  0
VERTEX
  5
106E
  8
0
 10
1744.638771143593
 20
1558.678426973062
 30
0.0
  0
SEQEND
  5
153B
  8
0
  0
POLYLINE
  5
7B6
  8
0
 66
     1
 10
0.0
 20
0.0
 30
0.0
  0
VERTEX
  5
106F
  8
0
 10
1744.638771143593
 20
1551.628426973063
 30
0.0
  0
VERTEX
  5
1070
  8
0
 10
1725.169923876079
 20
1551.628426973063
 30
0.0
  0
VERTEX
  5
1071
  8
0
 10
1725.169923876079
 20
1552.428426973062
 30
0.0
  0
VERTEX
  5
1072
  8
0
 10
1744.638771143593
 20
1552.428426973062
 30
0.0
  0
SEQEND
  5
153C
  8
0
  0
POLYLINE
  5
7B7
  8
0
 66
     1
 10
0.0
 20
0.0
 30
0.0
  0
VERTEX
  5
1073
  8
0
 10
1744.638771143593
 20
1545.224093548865
 30
0.0
  0
VERTEX
  5
1074
  8
0
 10
1725.169923876079
 20
1545.224093548865
 30
0.0
  0
VERTEX
  5
1075
  8
0
 10
1725.169923876079
 20
1546.024093548865
 30
0.0
  0
VERTEX
  5
1076
  8
0
 10
1744.638771143593
 20
1546.024093548865
 30
0.0
  0
SEQEND
  5
153D
  8
0
  0
POLYLINE
  5
7B8
  8
0
 66
     1
 10
0.0
 20
0.0
 30
0.0
  0
VERTEX
  5
1077
  8
0
 10
1744.638771143593
 20
1538.974093548865
 30
0.0
  0
VERTEX
  5
1078
  8
0
 10
1725.169923876079
 20
1538.974093548865
 30
0.0
  0
VERTEX
  5
1079
  8
0
 10
1725.169923876079
 20
1539.774093548865
 30
0.0
  0
VERTEX
  5
107A
  8
0
 10
1744.638771143593
 20
1539.774093548865
 30
0.0
  0
SEQEND
  5
153E
  8
0
  0
POLYLINE
  5
7B9
  8
0
 66
     1
 10
0.0
 20
0.0
 30
0.0
  0
VERTEX
  5
107B
  8
0
 10
1744.638771143593
 20
1532.724093548865
 30
0.0
  0
VERTEX
  5
107C
  8
0
 10
1725.169923876079
 20
1532.724093548865
 30
0.0
  0
VERTEX
  5
107D
  8
0
 10
1725.169923876079
 20
1533.524093548865
 30
0.0
  0
VERTEX
  5
107E
  8
0
 10
1744.638771143593
 20
1533.524093548865
 30
0.0
  0
SEQEND
  5
153F
  8
0
  0
POLYLINE
  5
7BA
  8
0
 66
     1
 10
0.0
 20
0.0
 30
0.0
  0
VERTEX
  5
107F
  8
0
 10
1744.638771143593
 20
1526.474093548865
 30
0.0
  0
VERTEX
  5
1080
  8
0
 10
1725.169923876079
 20
1526.474093548865
 30
0.0
  0
VERTEX
  5
1081
  8
0
 10
1725.169923876079
 20
1527.274093548865
 30
0.0
  0
VERTEX
  5
1082
  8
0
 10
1744.638771143593
 20
1527.274093548865
 30
0.0
  0
SEQEND
  5
1540
  8
0
  0
POLYLINE
  5
7BB
  8
0
 66
     1
 10
0.0
 20
0.0
 30
0.0
  0
VERTEX
  5
1083
  8
0
 10
1744.638771143593
 20
1520.224093548865
 30
0.0
  0
VERTEX
  5
1084
  8
0
 10
1725.169923876079
 20
1520.224093548865
 30
0.0
  0
VERTEX
  5
1085
  8
0
 10
1725.169923876079
 20
1521.024093548865
 30
0.0
  0
VERTEX
  5
1086
  8
0
 10
1744.638771143593
 20
1521.024093548865
 30
0.0
  0
SEQEND
  5
1541
  8
0
  0
POLYLINE
  5
7BC
  8
0
 66
     1
 10
0.0
 20
0.0
 30
0.0
  0
VERTEX
  5
1087
  8
0
 10
1744.638771143593
 20
1513.974093548865
 30
0.0
  0
VERTEX
  5
1088
  8
0
 10
1725.169923876079
 20
1513.974093548865
 30
0.0
  0
VERTEX
  5
1089
  8
0
 10
1725.169923876079
 20
1514.774093548865
 30
0.0
  0
VERTEX
  5
108A
  8
0
 10
1744.638771143593
 20
1514.774093548865
 30
0.0
  0
SEQEND
  5
1542
  8
0
  0
POLYLINE
  5
7BD
  8
0
 66
     1
 10
0.0
 20
0.0
 30
0.0
  0
VERTEX
  5
108B
  8
0
 10
1744.638771143593
 20
1507.724093548865
 30
0.0
  0
VERTEX
  5
108C
  8
0
 10
1725.169923876079
 20
1507.724093548865
 30
0.0
  0
VERTEX
  5
108D
  8
0
 10
1725.169923876079
 20
1508.524093548865
 30
0.0
  0
VERTEX
  5
108E
  8
0
 10
1744.638771143593
 20
1508.524093548865
 30
0.0
  0
SEQEND
  5
1543
  8
0
  0
POLYLINE
  5
7BE
  8
0
 66
     1
 10
0.0
 20
0.0
 30
0.0
  0
VERTEX
  5
108F
  8
0
 10
1744.638771143593
 20
1645.262774843463
 30
0.0
  0
VERTEX
  5
1090
  8
0
 10
1725.169923876079
 20
1645.262774843463
 30
0.0
  0
VERTEX
  5
1091
  8
0
 10
1725.169923876079
 20
1646.062774843464
 30
0.0
  0
VERTEX
  5
1092
  8
0
 10
1744.638771143593
 20
1646.062774843464
 30
0.0
  0
SEQEND
  5
1544
  8
0
  0
POLYLINE
  5
7BF
  8
0
 66
     1
 10
0.0
 20
0.0
 30
0.0
  0
VERTEX
  5
1093
  8
0
 10
1744.638771143593
 20
1639.012774843463
 30
0.0
  0
VERTEX
  5
1094
  8
0
 10
1725.169923876079
 20
1639.012774843463
 30
0.0
  0
VERTEX
  5
1095
  8
0
 10
1725.169923876079
 20
1639.812774843464
 30
0.0
  0
VERTEX
  5
1096
  8
0
 10
1744.638771143593
 20
1639.812774843464
 30
0.0
  0
SEQEND
  5
1545
  8
0
  0
POLYLINE
  5
7C0
  8
0
 66
     1
 10
0.0
 20
0.0
 30
0.0
  0
VERTEX
  5
1097
  8
0
 10
1744.638771143593
 20
1632.762774843463
 30
0.0
  0
VERTEX
  5
1098
  8
0
 10
1725.169923876079
 20
1632.762774843463
 30
0.0
  0
VERTEX
  5
1099
  8
0
 10
1725.169923876079
 20
1633.562774843464
 30
0.0
  0
VERTEX
  5
109A
  8
0
 10
1744.638771143593
 20
1633.562774843464
 30
0.0
  0
SEQEND
  5
1546
  8
0
  0
POLYLINE
  5
7C1
  8
0
 66
     1
 10
0.0
 20
0.0
 30
0.0
  0
VERTEX
  5
109B
  8
0
 10
1744.638771143593
 20
1626.512774843463
 30
0.0
  0
VERTEX
  5
109C
  8
0
 10
1725.169923876079
 20
1626.512774843463
 30
0.0
  0
VERTEX
  5
109D
  8
0
 10
1725.169923876079
 20
1627.312774843464
 30
0.0
  0
VERTEX
  5
109E
  8
0
 10
1744.638771143593
 20
1627.312774843464
 30
0.0
  0
SEQEND
  5
1547
  8
0
  0
POLYLINE
  5
7C2
  8
0
 66
     1
 10
0.0
 20
0.0
 30
0.0
  0
VERTEX
  5
109F
  8
0
 10
1744.638771143593
 20
1620.262774843463
 30
0.0
  0
VERTEX
  5
10A0
  8
0
 10
1725.169923876079
 20
1620.262774843463
 30
0.0
  0
VERTEX
  5
10A1
  8
0
 10
1725.169923876079
 20
1621.062774843464
 30
0.0
  0
VERTEX
  5
10A2
  8
0
 10
1744.638771143593
 20
1621.062774843464
 30
0.0
  0
SEQEND
  5
1548
  8
0
  0
POLYLINE
  5
7C3
  8
0
 66
     1
 10
0.0
 20
0.0
 30
0.0
  0
VERTEX
  5
10A3
  8
0
 10
1744.638771143593
 20
1614.012774843463
 30
0.0
  0
VERTEX
  5
10A4
  8
0
 10
1725.169923876079
 20
1614.012774843463
 30
0.0
  0
VERTEX
  5
10A5
  8
0
 10
1725.169923876079
 20
1614.812774843464
 30
0.0
  0
VERTEX
  5
10A6
  8
0
 10
1744.638771143593
 20
1614.812774843464
 30
0.0
  0
SEQEND
  5
1549
  8
0
  0
POLYLINE
  5
7C4
  8
0
 66
     1
 10
0.0
 20
0.0
 30
0.0
  0
VERTEX
  5
10A7
  8
0
 10
1744.638771143593
 20
1607.762774843463
 30
0.0
  0
VERTEX
  5
10A8
  8
0
 10
1725.169923876079
 20
1607.762774843463
 30
0.0
  0
VERTEX
  5
10A9
  8
0
 10
1725.169923876079
 20
1608.562774843464
 30
0.0
  0
VERTEX
  5
10AA
  8
0
 10
1744.638771143593
 20
1608.562774843464
 30
0.0
  0
SEQEND
  5
154A
  8
0
  0
LINE
  5
7C5
  8
0
 10
1744.638771143593
 20
1655.495261261004
 30
0.0
 11
1744.638771143593
 21
1654.695261261004
 31
0.0
  0
LINE
  5
7C6
  8
0
 10
1744.638771143593
 20
1652.316929146567
 30
0.0
 11
1744.638771143593
 21
1651.516929146567
 31
0.0
  0
LINE
  5
7C7
  8
0
 10
1744.638771143593
 20
1649.245261261004
 30
0.0
 11
1744.638771143593
 21
1648.445261261004
 31
0.0
  0
LINE
  5
7C8
  8
0
 10
1744.638771143593
 20
1646.062774843464
 30
0.0
 11
1744.638771143593
 21
1645.262774843463
 31
0.0
  0
LINE
  5
7C9
  8
0
 10
1744.638771143593
 20
1642.995261261004
 30
0.0
 11
1744.638771143593
 21
1642.195261261004
 31
0.0
  0
LINE
  5
7CA
  8
0
 10
1744.638771143593
 20
1639.812774843464
 30
0.0
 11
1744.638771143593
 21
1639.012774843463
 31
0.0
  0
LINE
  5
7CB
  8
0
 10
1744.638771143593
 20
1636.745261261004
 30
0.0
 11
1744.638771143593
 21
1635.945261261004
 31
0.0
  0
LINE
  5
7CC
  8
0
 10
1744.638771143593
 20
1633.562774843464
 30
0.0
 11
1744.638771143593
 21
1632.762774843463
 31
0.0
  0
LINE
  5
7CE
  8
0
 10
1744.638771143593
 20
1627.312774843464
 30
0.0
 11
1744.638771143593
 21
1626.512774843463
 31
0.0
  0
LINE
  5
7CF
  8
0
 10
1744.638771143593
 20
1624.245261261004
 30
0.0
 11
1744.638771143593
 21
1623.445261261004
 31
0.0
  0
LINE
  5
7D0
  8
0
 10
1744.638771143593
 20
1621.062774843464
 30
0.0
 11
1744.638771143593
 21
1620.262774843463
 31
0.0
  0
LINE
  5
7D1
  8
0
 10
1744.638771143593
 20
1617.995261261004
 30
0.0
 11
1744.638771143593
 21
1617.195261261004
 31
0.0
  0
LINE
  5
7D2
  8
0
 10
1744.638771143593
 20
1614.812774843464
 30
0.0
 11
1744.638771143593
 21
1614.012774843463
 31
0.0
  0
LINE
  5
7D3
  8
0
 10
1744.638771143593
 20
1611.745261261004
 30
0.0
 11
1744.638771143593
 21
1610.945261261004
 31
0.0
  0
LINE
  5
7D4
  8
0
 10
1744.638771143593
 20
1608.562774843464
 30
0.0
 11
1744.638771143593
 21
1607.762774843463
 31
0.0
  0
LINE
  5
7D5
  8
0
 10
1744.638771143593
 20
1605.495261261004
 30
0.0
 11
1744.638771143593
 21
1604.695261261004
 31
0.0
  0
LINE
  5
7D6
  8
0
 10
1744.638771143593
 20
1602.428426973062
 30
0.0
 11
1744.638771143593
 21
1601.628426973063
 31
0.0
  0
LINE
  5
7D7
  8
0
 10
1744.638771143593
 20
1599.245261261004
 30
0.0
 11
1744.638771143593
 21
1598.445261261004
 31
0.0
  0
LINE
  5
7D8
  8
0
 10
1744.638771143593
 20
1596.178426973062
 30
0.0
 11
1744.638771143593
 21
1595.378426973063
 31
0.0
  0
LINE
  5
7D9
  8
0
 10
1744.638771143593
 20
1592.995261261004
 30
0.0
 11
1744.638771143593
 21
1592.195261261004
 31
0.0
  0
LINE
  5
7DA
  8
0
 10
1744.638771143593
 20
1589.928426973062
 30
0.0
 11
1744.638771143593
 21
1589.128426973063
 31
0.0
  0
LINE
  5
7DB
  8
0
 10
1744.638771143593
 20
1586.745261261004
 30
0.0
 11
1744.638771143593
 21
1585.945261261004
 31
0.0
  0
LINE
  5
7DC
  8
0
 10
1744.638771143593
 20
1583.678426973062
 30
0.0
 11
1744.638771143593
 21
1582.878426973063
 31
0.0
  0
LINE
  5
7DD
  8
0
 10
1744.638771143593
 20
1580.495261261004
 30
0.0
 11
1744.638771143593
 21
1579.695261261004
 31
0.0
  0
LINE
  5
7DE
  8
0
 10
1744.638771143593
 20
1577.428426973062
 30
0.0
 11
1744.638771143593
 21
1576.628426973063
 31
0.0
  0
LINE
  5
7DF
  8
0
 10
1744.638771143593
 20
1574.245261261004
 30
0.0
 11
1744.638771143593
 21
1573.445261261004
 31
0.0
  0
LINE
  5
7E0
  8
0
 10
1744.638771143593
 20
1571.178426973062
 30
0.0
 11
1744.638771143593
 21
1570.378426973063
 31
0.0
  0
LINE
  5
7E1
  8
0
 10
1744.638771143593
 20
1567.995261261004
 30
0.0
 11
1744.638771143593
 21
1567.195261261004
 31
0.0
  0
LINE
  5
7E2
  8
0
 10
1744.638771143593
 20
1564.928426973062
 30
0.0
 11
1744.638771143593
 21
1564.128426973063
 31
0.0
  0
LINE
  5
7E3
  8
0
 10
1744.638771143593
 20
1561.745261261004
 30
0.0
 11
1744.638771143593
 21
1560.945261261004
 31
0.0
  0
LINE
  5
7E4
  8
0
 10
1744.638771143593
 20
1558.678426973062
 30
0.0
 11
1744.638771143593
 21
1557.878426973063
 31
0.0
  0
LINE
  5
7E5
  8
0
 10
1744.638771143593
 20
1555.495261261004
 30
0.0
 11
1744.638771143593
 21
1554.695261261004
 31
0.0
  0
LINE
  5
7E6
  8
0
 10
1744.638771143593
 20
1552.428426973062
 30
0.0
 11
1744.638771143593
 21
1551.628426973063
 31
0.0
  0
LINE
  5
7E7
  8
0
 10
1744.638771143593
 20
1549.245261261004
 30
0.0
 11
1744.638771143593
 21
1548.445261261004
 31
0.0
  0
LINE
  5
7E8
  8
0
 10
1744.638771143593
 20
1546.024093548865
 30
0.0
 11
1744.638771143593
 21
1545.224093548865
 31
0.0
  0
LINE
  5
7E9
  8
0
 10
1744.638771143593
 20
1542.995261261004
 30
0.0
 11
1744.638771143593
 21
1542.195261261004
 31
0.0
  0
LINE
  5
7EA
  8
0
 10
1744.638771143593
 20
1539.774093548865
 30
0.0
 11
1744.638771143593
 21
1538.974093548865
 31
0.0
  0
LINE
  5
7EB
  8
0
 10
1744.638771143593
 20
1536.745261261004
 30
0.0
 11
1744.638771143593
 21
1535.945261261004
 31
0.0
  0
LINE
  5
7EC
  8
0
 10
1744.638771143593
 20
1533.524093548865
 30
0.0
 11
1744.638771143593
 21
1532.724093548865
 31
0.0
  0
LINE
  5
7ED
  8
0
 10
1744.638771143593
 20
1530.495261261004
 30
0.0
 11
1744.638771143593
 21
1529.695261261004
 31
0.0
  0
LINE
  5
7EE
  8
0
 10
1744.638771143593
 20
1527.274093548865
 30
0.0
 11
1744.638771143593
 21
1526.474093548865
 31
0.0
  0
LINE
  5
7EF
  8
0
 10
1744.638771143593
 20
1524.245261261004
 30
0.0
 11
1744.638771143593
 21
1523.445261261004
 31
0.0
  0
LINE
  5
7F0
  8
0
 10
1744.638771143593
 20
1521.024093548865
 30
0.0
 11
1744.638771143593
 21
1520.224093548865
 31
0.0
  0
LINE
  5
7F1
  8
0
 10
1744.638771143593
 20
1517.995261261004
 30
0.0
 11
1744.638771143593
 21
1517.195261261004
 31
0.0
  0
LINE
  5
7F2
  8
0
 10
1744.638771143593
 20
1514.774093548865
 30
0.0
 11
1744.638771143593
 21
1513.974093548865
 31
0.0
  0
LINE
  5
7F3
  8
0
 10
1744.638771143593
 20
1511.745261261004
 30
0.0
 11
1744.638771143593
 21
1510.945261261004
 31
0.0
  0
LINE
  5
7F4
  8
0
 10
1744.638771143593
 20
1508.524093548865
 30
0.0
 11
1744.638771143593
 21
1507.724093548865
 31
0.0
  0
LINE
  5
7F5
  8
0
 10
1744.638771143593
 20
1505.495261261004
 30
0.0
 11
1744.638771143593
 21
1504.695261261004
 31
0.0
  0
POLYLINE
  5
7F6
  8
0
 66
     1
 10
0.0
 20
0.0
 30
0.0
  0
VERTEX
  5
10AB
  8
0
 10
1744.638771143593
 20
1651.516929146567
 30
0.0
  0
VERTEX
  5
10AC
  8
0
 10
1711.467598052659
 20
1651.516929146567
 30
0.0
  0
SEQEND
  5
154B
  8
0
  0
POLYLINE
  5
7F7
  8
0
 66
     1
 10
0.0
 20
0.0
 30
0.0
  0
VERTEX
  5
10AD
  8
0
 10
1714.829676194367
 20
1652.316929146567
 30
0.0
  0
VERTEX
  5
10AE
  8
0
 10
1744.638771143593
 20
1652.316929146567
 30
0.0
  0
SEQEND
  5
154C
  8
0
  0
POLYLINE
  5
7F8
  8
0
 66
     1
 10
0.0
 20
0.0
 30
0.0
 70
     1
  0
VERTEX
  5
10AF
  8
0
 10
1849.835919735776
 20
1559.730284591626
 30
0.0
  0
VERTEX
  5
10B0
  8
0
 10
1849.035919735776
 20
1559.730284591626
 30
0.0
  0
VERTEX
  5
10B1
  8
0
 10
1849.035919735776
 20
1599.730284591625
 30
0.0
  0
VERTEX
  5
10B2
  8
0
 10
1849.835919735776
 20
1599.730284591625
 30
0.0
  0
SEQEND
  5
154D
  8
0
  0
POLYLINE
  5
7F9
  8
0
 66
     1
 10
0.0
 20
0.0
 30
0.0
 70
     1
  0
VERTEX
  5
10B3
  8
0
 10
1843.585919735776
 20
1559.730284591626
 30
0.0
  0
VERTEX
  5
10B4
  8
0
 10
1842.785919735776
 20
1559.730284591626
 30
0.0
  0
VERTEX
  5
10B5
  8
0
 10
1842.785919735776
 20
1599.730284591625
 30
0.0
  0
VERTEX
  5
10B6
  8
0
 10
1843.585919735776
 20
1599.730284591625
 30
0.0
  0
SEQEND
  5
154E
  8
0
  0
POLYLINE
  5
7FA
  8
0
 66
     1
 10
0.0
 20
0.0
 30
0.0
 70
     1
  0
VERTEX
  5
10B7
  8
0
 10
1837.335919735776
 20
1559.730284591626
 30
0.0
  0
VERTEX
  5
10B8
  8
0
 10
1836.535919735776
 20
1559.730284591626
 30
0.0
  0
VERTEX
  5
10B9
  8
0
 10
1836.535919735776
 20
1599.730284591625
 30
0.0
  0
VERTEX
  5
10BA
  8
0
 10
1837.335919735776
 20
1599.730284591625
 30
0.0
  0
SEQEND
  5
154F
  8
0
  0
POLYLINE
  5
7FB
  8
0
 66
     1
 10
0.0
 20
0.0
 30
0.0
 70
     1
  0
VERTEX
  5
10BB
  8
0
 10
1831.085919735776
 20
1559.730284591626
 30
0.0
  0
VERTEX
  5
10BC
  8
0
 10
1830.285919735776
 20
1559.730284591626
 30
0.0
  0
VERTEX
  5
10BD
  8
0
 10
1830.285919735776
 20
1599.730284591625
 30
0.0
  0
VERTEX
  5
10BE
  8
0
 10
1831.085919735776
 20
1599.730284591625
 30
0.0
  0
SEQEND
  5
1550
  8
0
  0
POLYLINE
  5
7FC
  8
0
 66
     1
 10
0.0
 20
0.0
 30
0.0
 70
     1
  0
VERTEX
  5
10BF
  8
0
 10
1824.835919735776
 20
1559.730284591626
 30
0.0
  0
VERTEX
  5
10C0
  8
0
 10
1824.035919735776
 20
1559.730284591626
 30
0.0
  0
VERTEX
  5
10C1
  8
0
 10
1824.035919735776
 20
1599.730284591625
 30
0.0
  0
VERTEX
  5
10C2
  8
0
 10
1824.835919735776
 20
1599.730284591625
 30
0.0
  0
SEQEND
  5
1551
  8
0
  0
POLYLINE
  5
7FD
  8
0
 66
     1
 10
0.0
 20
0.0
 30
0.0
 70
     1
  0
VERTEX
  5
10C3
  8
0
 10
1818.585919735776
 20
1559.730284591626
 30
0.0
  0
VERTEX
  5
10C4
  8
0
 10
1817.785919735776
 20
1559.730284591626
 30
0.0
  0
VERTEX
  5
10C5
  8
0
 10
1817.785919735776
 20
1599.730284591625
 30
0.0
  0
VERTEX
  5
10C6
  8
0
 10
1818.585919735776
 20
1599.730284591625
 30
0.0
  0
SEQEND
  5
1552
  8
0
  0
POLYLINE
  5
7FE
  8
0
 66
     1
 10
0.0
 20
0.0
 30
0.0
 70
     1
  0
VERTEX
  5
10C7
  8
0
 10
1812.335919735776
 20
1559.730284591626
 30
0.0
  0
VERTEX
  5
10C8
  8
0
 10
1811.535919735776
 20
1559.730284591626
 30
0.0
  0
VERTEX
  5
10C9
  8
0
 10
1811.535919735776
 20
1599.730284591625
 30
0.0
  0
VERTEX
  5
10CA
  8
0
 10
1812.335919735776
 20
1599.730284591625
 30
0.0
  0
SEQEND
  5
1553
  8
0
  0
POLYLINE
  5
7FF
  8
0
 66
     1
 10
0.0
 20
0.0
 30
0.0
 70
     1
  0
VERTEX
  5
10CB
  8
0
 10
1806.085919735776
 20
1559.730284591626
 30
0.0
  0
VERTEX
  5
10CC
  8
0
 10
1805.285919735776
 20
1559.730284591626
 30
0.0
  0
VERTEX
  5
10CD
  8
0
 10
1805.285919735776
 20
1599.730284591625
 30
0.0
  0
VERTEX
  5
10CE
  8
0
 10
1806.085919735776
 20
1599.730284591625
 30
0.0
  0
SEQEND
  5
1554
  8
0
  0
POLYLINE
  5
800
  8
0
 66
     1
 10
0.0
 20
0.0
 30
0.0
 70
     1
  0
VERTEX
  5
10CF
  8
0
 10
1799.835919735776
 20
1559.730284591626
 30
0.0
  0
VERTEX
  5
10D0
  8
0
 10
1799.035919735776
 20
1559.730284591626
 30
0.0
  0
VERTEX
  5
10D1
  8
0
 10
1799.035919735776
 20
1599.730284591625
 30
0.0
  0
VERTEX
  5
10D2
  8
0
 10
1799.835919735776
 20
1599.730284591625
 30
0.0
  0
SEQEND
  5
1555
  8
0
  0
POLYLINE
  5
801
  8
0
 66
     1
 10
0.0
 20
0.0
 30
0.0
 70
     1
  0
VERTEX
  5
10D3
  8
0
 10
1853.019085447835
 20
1534.156111814229
 30
0.0
  0
VERTEX
  5
10D4
  8
0
 10
1852.219085447834
 20
1534.156111814229
 30
0.0
  0
VERTEX
  5
10D5
  8
0
 10
1852.219085447834
 20
1574.156111814229
 30
0.0
  0
VERTEX
  5
10D6
  8
0
 10
1853.019085447835
 20
1574.156111814229
 30
0.0
  0
SEQEND
  5
1556
  8
0
  0
POLYLINE
  5
802
  8
0
 66
     1
 10
0.0
 20
0.0
 30
0.0
 70
     1
  0
VERTEX
  5
10D7
  8
0
 10
1846.769085447835
 20
1534.156111814229
 30
0.0
  0
VERTEX
  5
10D8
  8
0
 10
1845.969085447834
 20
1534.156111814229
 30
0.0
  0
VERTEX
  5
10D9
  8
0
 10
1845.969085447834
 20
1574.156111814229
 30
0.0
  0
VERTEX
  5
10DA
  8
0
 10
1846.769085447835
 20
1574.156111814229
 30
0.0
  0
SEQEND
  5
1557
  8
0
  0
POLYLINE
  5
803
  8
0
 66
     1
 10
0.0
 20
0.0
 30
0.0
 70
     1
  0
VERTEX
  5
10DB
  8
0
 10
1840.519085447835
 20
1534.156111814229
 30
0.0
  0
VERTEX
  5
10DC
  8
0
 10
1839.719085447834
 20
1534.156111814229
 30
0.0
  0
VERTEX
  5
10DD
  8
0
 10
1839.719085447834
 20
1574.156111814229
 30
0.0
  0
VERTEX
  5
10DE
  8
0
 10
1840.519085447835
 20
1574.156111814229
 30
0.0
  0
SEQEND
  5
1558
  8
0
  0
POLYLINE
  5
804
  8
0
 66
     1
 10
0.0
 20
0.0
 30
0.0
 70
     1
  0
VERTEX
  5
10DF
  8
0
 10
1834.269085447835
 20
1534.156111814229
 30
0.0
  0
VERTEX
  5
10E0
  8
0
 10
1833.469085447834
 20
1534.156111814229
 30
0.0
  0
VERTEX
  5
10E1
  8
0
 10
1833.469085447834
 20
1574.156111814229
 30
0.0
  0
VERTEX
  5
10E2
  8
0
 10
1834.269085447835
 20
1574.156111814229
 30
0.0
  0
SEQEND
  5
1559
  8
0
  0
POLYLINE
  5
805
  8
0
 66
     1
 10
0.0
 20
0.0
 30
0.0
 70
     1
  0
VERTEX
  5
10E3
  8
0
 10
1828.019085447835
 20
1534.156111814229
 30
0.0
  0
VERTEX
  5
10E4
  8
0
 10
1827.219085447834
 20
1534.156111814229
 30
0.0
  0
VERTEX
  5
10E5
  8
0
 10
1827.219085447834
 20
1574.156111814229
 30
0.0
  0
VERTEX
  5
10E6
  8
0
 10
1828.019085447835
 20
1574.156111814229
 30
0.0
  0
SEQEND
  5
155A
  8
0
  0
POLYLINE
  5
806
  8
0
 66
     1
 10
0.0
 20
0.0
 30
0.0
 70
     1
  0
VERTEX
  5
10E7
  8
0
 10
1821.769085447835
 20
1534.156111814229
 30
0.0
  0
VERTEX
  5
10E8
  8
0
 10
1820.969085447834
 20
1534.156111814229
 30
0.0
  0
VERTEX
  5
10E9
  8
0
 10
1820.969085447834
 20
1574.156111814229
 30
0.0
  0
VERTEX
  5
10EA
  8
0
 10
1821.769085447835
 20
1574.156111814229
 30
0.0
  0
SEQEND
  5
155B
  8
0
  0
POLYLINE
  5
807
  8
0
 66
     1
 10
0.0
 20
0.0
 30
0.0
 70
     1
  0
VERTEX
  5
10EB
  8
0
 10
1815.519085447835
 20
1534.156111814229
 30
0.0
  0
VERTEX
  5
10EC
  8
0
 10
1814.719085447834
 20
1534.156111814229
 30
0.0
  0
VERTEX
  5
10ED
  8
0
 10
1814.719085447834
 20
1574.156111814229
 30
0.0
  0
VERTEX
  5
10EE
  8
0
 10
1815.519085447835
 20
1574.156111814229
 30
0.0
  0
SEQEND
  5
155C
  8
0
  0
POLYLINE
  5
808
  8
0
 66
     1
 10
0.0
 20
0.0
 30
0.0
  0
VERTEX
  5
10EF
  8
0
 10
1853.207470106601
 20
1617.955062048685
 30
0.0
  0
VERTEX
  5
10F0
  8
0
 10
1853.207470106601
 20
1587.044951006434
 30
0.0
  0
VERTEX
  5
10F1
  8
0
 10
1852.407470106602
 20
1587.044951006434
 30
0.0
  0
VERTEX
  5
10F2
  8
0
 10
1852.407470106602
 20
1618.650794858666
 30
0.0
  0
SEQEND
  5
155D
  8
0
  0
POLYLINE
  5
809
  8
0
 66
     1
 10
0.0
 20
0.0
 30
0.0
  0
VERTEX
  5
10F3
  8
0
 10
1846.957470106601
 20
1623.148137956269
 30
0.0
  0
VERTEX
  5
10F4
  8
0
 10
1846.957470106601
 20
1587.044951006434
 30
0.0
  0
VERTEX
  5
10F5
  8
0
 10
1846.157470106602
 20
1587.044951006434
 30
0.0
  0
VERTEX
  5
10F6
  8
0
 10
1846.157470106602
 20
1623.774395838106
 30
0.0
  0
SEQEND
  5
155E
  8
0
  0
POLYLINE
  5
80A
  8
0
 66
     1
 10
0.0
 20
0.0
 30
0.0
  0
VERTEX
  5
10F7
  8
0
 10
1840.707470106601
 20
1627.826345153394
 30
0.0
  0
VERTEX
  5
10F8
  8
0
 10
1840.707470106601
 20
1587.044951006434
 30
0.0
  0
VERTEX
  5
10F9
  8
0
 10
1839.907470106602
 20
1587.044951006434
 30
0.0
  0
VERTEX
  5
10FA
  8
0
 10
1839.907470106602
 20
1628.390933754453
 30
0.0
  0
SEQEND
  5
155F
  8
0
  0
POLYLINE
  5
80B
  8
0
 66
     1
 10
0.0
 20
0.0
 30
0.0
  0
VERTEX
  5
10FB
  8
0
 10
1834.457470106601
 20
1632.044351187937
 30
0.0
  0
VERTEX
  5
10FC
  8
0
 10
1834.457470106601
 20
1587.044951006434
 30
0.0
  0
VERTEX
  5
10FD
  8
0
 10
1833.657470106602
 20
1587.044951006434
 30
0.0
  0
VERTEX
  5
10FE
  8
0
 10
1833.657470106602
 20
1632.553333509838
 30
0.0
  0
SEQEND
  5
1560
  8
0
  0
POLYLINE
  5
80C
  8
0
 66
     1
 10
0.0
 20
0.0
 30
0.0
  0
VERTEX
  5
10FF
  8
0
 10
1828.207470106601
 20
1635.844979188487
 30
0.0
  0
VERTEX
  5
1100
  8
0
 10
1828.207470106601
 20
1587.044951006434
 30
0.0
  0
VERTEX
  5
1101
  8
0
 10
1827.407470106602
 20
1587.044951006434
 30
0.0
  0
VERTEX
  5
1102
  8
0
 10
1827.407470106602
 20
1636.303156724032
 30
0.0
  0
SEQEND
  5
1561
  8
0
  0
POLYLINE
  5
80D
  8
0
 66
     1
 10
0.0
 20
0.0
 30
0.0
  0
VERTEX
  5
1103
  8
0
 10
1821.957470106601
 20
1639.262365409713
 30
0.0
  0
VERTEX
  5
1104
  8
0
 10
1821.957470106601
 20
1587.044951006434
 30
0.0
  0
VERTEX
  5
1105
  8
0
 10
1821.157470106602
 20
1587.044951006434
 30
0.0
  0
VERTEX
  5
1106
  8
0
 10
1821.157470106602
 20
1639.67359785408
 30
0.0
  0
SEQEND
  5
1562
  8
0
  0
POLYLINE
  5
80E
  8
0
 66
     1
 10
0.0
 20
0.0
 30
0.0
 70
     1
  0
VERTEX
  5
1107
  8
0
 10
1809.269085447835
 20
1534.156111814229
 30
0.0
  0
VERTEX
  5
1108
  8
0
 10
1808.469085447834
 20
1534.156111814229
 30
0.0
  0
VERTEX
  5
1109
  8
0
 10
1808.469085447834
 20
1574.156111814229
 30
0.0
  0
VERTEX
  5
110A
  8
0
 10
1809.269085447835
 20
1574.156111814229
 30
0.0
  0
SEQEND
  5
1563
  8
0
  0
POLYLINE
  5
80F
  8
0
 66
     1
 10
0.0
 20
0.0
 30
0.0
 70
     1
  0
VERTEX
  5
110B
  8
0
 10
1803.019085447835
 20
1534.156111814229
 30
0.0
  0
VERTEX
  5
110C
  8
0
 10
1802.219085447834
 20
1534.156111814229
 30
0.0
  0
VERTEX
  5
110D
  8
0
 10
1802.219085447834
 20
1574.156111814229
 30
0.0
  0
VERTEX
  5
110E
  8
0
 10
1803.019085447835
 20
1574.156111814229
 30
0.0
  0
SEQEND
  5
1564
  8
0
  0
POLYLINE
  5
810
  8
0
 66
     1
 10
0.0
 20
0.0
 30
0.0
 70
     1
  0
VERTEX
  5
110F
  8
0
 10
1815.707470106601
 20
1587.044951006434
 30
0.0
  0
VERTEX
  5
1110
  8
0
 10
1814.907470106602
 20
1587.044951006434
 30
0.0
  0
VERTEX
  5
1111
  8
0
 10
1814.907470106602
 20
1627.044951006434
 30
0.0
  0
VERTEX
  5
1112
  8
0
 10
1815.707470106601
 20
1627.044951006434
 30
0.0
  0
SEQEND
  5
1565
  8
0
  0
POLYLINE
  5
811
  8
0
 66
     1
 10
0.0
 20
0.0
 30
0.0
 70
     1
  0
VERTEX
  5
1113
  8
0
 10
1809.457470106601
 20
1587.044951006434
 30
0.0
  0
VERTEX
  5
1114
  8
0
 10
1808.657470106602
 20
1587.044951006434
 30
0.0
  0
VERTEX
  5
1115
  8
0
 10
1808.657470106602
 20
1627.044951006434
 30
0.0
  0
VERTEX
  5
1116
  8
0
 10
1809.457470106601
 20
1627.044951006434
 30
0.0
  0
SEQEND
  5
1566
  8
0
  0
POLYLINE
  5
812
  8
0
 66
     1
 10
0.0
 20
0.0
 30
0.0
 70
     1
  0
VERTEX
  5
1117
  8
0
 10
1803.207470106601
 20
1587.044951006434
 30
0.0
  0
VERTEX
  5
1118
  8
0
 10
1802.407470106602
 20
1587.044951006434
 30
0.0
  0
VERTEX
  5
1119
  8
0
 10
1802.407470106602
 20
1627.044951006434
 30
0.0
  0
VERTEX
  5
111A
  8
0
 10
1803.207470106601
 20
1627.044951006434
 30
0.0
  0
SEQEND
  5
1567
  8
0
  0
POLYLINE
  5
813
  8
0
 66
     1
 10
0.0
 20
0.0
 30
0.0
  0
VERTEX
  5
111B
  8
0
 10
1849.035919735776
 20
1504.687264546716
 30
0.0
  0
VERTEX
  5
111C
  8
0
 10
1849.035919735776
 20
1549.730284591626
 30
0.0
  0
VERTEX
  5
111D
  8
0
 10
1849.835919735776
 20
1549.730284591626
 30
0.0
  0
VERTEX
  5
111E
  8
0
 10
1849.835919735776
 20
1504.687264546716
 30
0.0
  0
SEQEND
  5
1568
  8
0
  0
POLYLINE
  5
814
  8
0
 66
     1
 10
0.0
 20
0.0
 30
0.0
  0
VERTEX
  5
111F
  8
0
 10
1842.785919735776
 20
1504.687264546716
 30
0.0
  0
VERTEX
  5
1120
  8
0
 10
1842.785919735776
 20
1549.730284591626
 30
0.0
  0
VERTEX
  5
1121
  8
0
 10
1843.585919735776
 20
1549.730284591626
 30
0.0
  0
VERTEX
  5
1122
  8
0
 10
1843.585919735776
 20
1504.687264546716
 30
0.0
  0
SEQEND
  5
1569
  8
0
  0
POLYLINE
  5
815
  8
0
 66
     1
 10
0.0
 20
0.0
 30
0.0
  0
VERTEX
  5
1123
  8
0
 10
1836.535919735776
 20
1504.687264546716
 30
0.0
  0
VERTEX
  5
1124
  8
0
 10
1836.535919735776
 20
1549.730284591626
 30
0.0
  0
VERTEX
  5
1125
  8
0
 10
1837.335919735776
 20
1549.730284591626
 30
0.0
  0
VERTEX
  5
1126
  8
0
 10
1837.335919735776
 20
1504.687264546716
 30
0.0
  0
SEQEND
  5
156A
  8
0
  0
POLYLINE
  5
816
  8
0
 66
     1
 10
0.0
 20
0.0
 30
0.0
  0
VERTEX
  5
1127
  8
0
 10
1830.285919735776
 20
1504.687264546716
 30
0.0
  0
VERTEX
  5
1128
  8
0
 10
1830.285919735776
 20
1549.730284591626
 30
0.0
  0
VERTEX
  5
1129
  8
0
 10
1831.085919735776
 20
1549.730284591626
 30
0.0
  0
VERTEX
  5
112A
  8
0
 10
1831.085919735776
 20
1504.687264546716
 30
0.0
  0
SEQEND
  5
156B
  8
0
  0
POLYLINE
  5
817
  8
0
 66
     1
 10
0.0
 20
0.0
 30
0.0
  0
VERTEX
  5
112B
  8
0
 10
1824.035919735776
 20
1504.687264546716
 30
0.0
  0
VERTEX
  5
112C
  8
0
 10
1824.035919735776
 20
1549.730284591626
 30
0.0
  0
VERTEX
  5
112D
  8
0
 10
1824.835919735776
 20
1549.730284591626
 30
0.0
  0
VERTEX
  5
112E
  8
0
 10
1824.835919735776
 20
1504.687264546716
 30
0.0
  0
SEQEND
  5
156C
  8
0
  0
POLYLINE
  5
818
  8
0
 66
     1
 10
0.0
 20
0.0
 30
0.0
  0
VERTEX
  5
112F
  8
0
 10
1817.785919735776
 20
1504.687264546716
 30
0.0
  0
VERTEX
  5
1130
  8
0
 10
1817.785919735776
 20
1549.730284591626
 30
0.0
  0
VERTEX
  5
1131
  8
0
 10
1818.585919735776
 20
1549.730284591626
 30
0.0
  0
VERTEX
  5
1132
  8
0
 10
1818.585919735776
 20
1504.687264546716
 30
0.0
  0
SEQEND
  5
156D
  8
0
  0
POLYLINE
  5
819
  8
0
 66
     1
 10
0.0
 20
0.0
 30
0.0
  0
VERTEX
  5
1133
  8
0
 10
1811.535919735776
 20
1504.687264546716
 30
0.0
  0
VERTEX
  5
1134
  8
0
 10
1811.535919735776
 20
1549.730284591626
 30
0.0
  0
VERTEX
  5
1135
  8
0
 10
1812.335919735776
 20
1549.730284591626
 30
0.0
  0
VERTEX
  5
1136
  8
0
 10
1812.335919735776
 20
1504.687264546716
 30
0.0
  0
SEQEND
  5
156E
  8
0
  0
POLYLINE
  5
81A
  8
0
 66
     1
 10
0.0
 20
0.0
 30
0.0
  0
VERTEX
  5
1137
  8
0
 10
1805.285919735776
 20
1504.687264546716
 30
0.0
  0
VERTEX
  5
1138
  8
0
 10
1805.285919735776
 20
1549.730284591626
 30
0.0
  0
VERTEX
  5
1139
  8
0
 10
1806.085919735776
 20
1549.730284591626
 30
0.0
  0
VERTEX
  5
113A
  8
0
 10
1806.085919735776
 20
1504.687264546716
 30
0.0
  0
SEQEND
  5
156F
  8
0
  0
POLYLINE
  5
81B
  8
0
 66
     1
 10
0.0
 20
0.0
 30
0.0
  0
VERTEX
  5
113B
  8
0
 10
1799.035919735776
 20
1504.687264546716
 30
0.0
  0
VERTEX
  5
113C
  8
0
 10
1799.035919735776
 20
1549.730284591626
 30
0.0
  0
VERTEX
  5
113D
  8
0
 10
1799.835919735776
 20
1549.730284591626
 30
0.0
  0
VERTEX
  5
113E
  8
0
 10
1799.835919735776
 20
1504.687264546716
 30
0.0
  0
SEQEND
  5
1570
  8
0
  0
POLYLINE
  5
81C
  8
0
 66
     1
 10
0.0
 20
0.0
 30
0.0
 70
     1
  0
VERTEX
  5
113F
  8
0
 10
1793.585919735776
 20
1559.730284591626
 30
0.0
  0
VERTEX
  5
1140
  8
0
 10
1792.785919735776
 20
1559.730284591626
 30
0.0
  0
VERTEX
  5
1141
  8
0
 10
1792.785919735776
 20
1599.730284591625
 30
0.0
  0
VERTEX
  5
1142
  8
0
 10
1793.585919735776
 20
1599.730284591625
 30
0.0
  0
SEQEND
  5
1571
  8
0
  0
POLYLINE
  5
81D
  8
0
 66
     1
 10
0.0
 20
0.0
 30
0.0
 70
     1
  0
VERTEX
  5
1143
  8
0
 10
1787.335919735776
 20
1559.730284591626
 30
0.0
  0
VERTEX
  5
1144
  8
0
 10
1786.535919735776
 20
1559.730284591626
 30
0.0
  0
VERTEX
  5
1145
  8
0
 10
1786.535919735776
 20
1599.730284591625
 30
0.0
  0
VERTEX
  5
1146
  8
0
 10
1787.335919735776
 20
1599.730284591625
 30
0.0
  0
SEQEND
  5
1572
  8
0
  0
POLYLINE
  5
81E
  8
0
 66
     1
 10
0.0
 20
0.0
 30
0.0
 70
     1
  0
VERTEX
  5
1147
  8
0
 10
1781.085919735776
 20
1559.730284591626
 30
0.0
  0
VERTEX
  5
1148
  8
0
 10
1780.285919735776
 20
1559.730284591626
 30
0.0
  0
VERTEX
  5
1149
  8
0
 10
1780.285919735776
 20
1599.730284591625
 30
0.0
  0
VERTEX
  5
114A
  8
0
 10
1781.085919735776
 20
1599.730284591625
 30
0.0
  0
SEQEND
  5
1573
  8
0
  0
POLYLINE
  5
81F
  8
0
 66
     1
 10
0.0
 20
0.0
 30
0.0
 70
     1
  0
VERTEX
  5
114B
  8
0
 10
1774.835919735776
 20
1559.730284591626
 30
0.0
  0
VERTEX
  5
114C
  8
0
 10
1774.035919735776
 20
1559.730284591626
 30
0.0
  0
VERTEX
  5
114D
  8
0
 10
1774.035919735776
 20
1599.730284591625
 30
0.0
  0
VERTEX
  5
114E
  8
0
 10
1774.835919735776
 20
1599.730284591625
 30
0.0
  0
SEQEND
  5
1574
  8
0
  0
POLYLINE
  5
820
  8
0
 66
     1
 10
0.0
 20
0.0
 30
0.0
 70
     1
  0
VERTEX
  5
114F
  8
0
 10
1768.585919735776
 20
1559.730284591626
 30
0.0
  0
VERTEX
  5
1150
  8
0
 10
1767.785919735776
 20
1559.730284591626
 30
0.0
  0
VERTEX
  5
1151
  8
0
 10
1767.785919735776
 20
1599.730284591625
 30
0.0
  0
VERTEX
  5
1152
  8
0
 10
1768.585919735776
 20
1599.730284591625
 30
0.0
  0
SEQEND
  5
1575
  8
0
  0
POLYLINE
  5
821
  8
0
 66
     1
 10
0.0
 20
0.0
 30
0.0
 70
     1
  0
VERTEX
  5
1153
  8
0
 10
1762.335919735776
 20
1559.730284591626
 30
0.0
  0
VERTEX
  5
1154
  8
0
 10
1761.535919735776
 20
1559.730284591626
 30
0.0
  0
VERTEX
  5
1155
  8
0
 10
1761.535919735776
 20
1599.730284591625
 30
0.0
  0
VERTEX
  5
1156
  8
0
 10
1762.335919735776
 20
1599.730284591625
 30
0.0
  0
SEQEND
  5
1576
  8
0
  0
POLYLINE
  5
822
  8
0
 66
     1
 10
0.0
 20
0.0
 30
0.0
 70
     1
  0
VERTEX
  5
1157
  8
0
 10
1756.085919735776
 20
1559.730284591626
 30
0.0
  0
VERTEX
  5
1158
  8
0
 10
1755.285919735776
 20
1559.730284591626
 30
0.0
  0
VERTEX
  5
1159
  8
0
 10
1755.285919735776
 20
1599.730284591625
 30
0.0
  0
VERTEX
  5
115A
  8
0
 10
1756.085919735776
 20
1599.730284591625
 30
0.0
  0
SEQEND
  5
1577
  8
0
  0
POLYLINE
  5
823
  8
0
 66
     1
 10
0.0
 20
0.0
 30
0.0
  0
VERTEX
  5
115B
  8
0
 10
1792.785919735776
 20
1504.687264546716
 30
0.0
  0
VERTEX
  5
115C
  8
0
 10
1792.785919735776
 20
1549.730284591626
 30
0.0
  0
VERTEX
  5
115D
  8
0
 10
1793.585919735776
 20
1549.730284591626
 30
0.0
  0
VERTEX
  5
115E
  8
0
 10
1793.585919735776
 20
1504.687264546716
 30
0.0
  0
SEQEND
  5
1578
  8
0
  0
POLYLINE
  5
824
  8
0
 66
     1
 10
0.0
 20
0.0
 30
0.0
  0
VERTEX
  5
115F
  8
0
 10
1786.535919735776
 20
1504.687264546716
 30
0.0
  0
VERTEX
  5
1160
  8
0
 10
1786.535919735776
 20
1549.730284591626
 30
0.0
  0
VERTEX
  5
1161
  8
0
 10
1787.335919735776
 20
1549.730284591626
 30
0.0
  0
VERTEX
  5
1162
  8
0
 10
1787.335919735776
 20
1504.687264546716
 30
0.0
  0
SEQEND
  5
1579
  8
0
  0
POLYLINE
  5
825
  8
0
 66
     1
 10
0.0
 20
0.0
 30
0.0
  0
VERTEX
  5
1163
  8
0
 10
1780.285919735776
 20
1504.687264546716
 30
0.0
  0
VERTEX
  5
1164
  8
0
 10
1780.285919735776
 20
1549.730284591626
 30
0.0
  0
VERTEX
  5
1165
  8
0
 10
1781.085919735776
 20
1549.730284591626
 30
0.0
  0
VERTEX
  5
1166
  8
0
 10
1781.085919735776
 20
1504.687264546716
 30
0.0
  0
SEQEND
  5
157A
  8
0
  0
POLYLINE
  5
826
  8
0
 66
     1
 10
0.0
 20
0.0
 30
0.0
  0
VERTEX
  5
1167
  8
0
 10
1774.035919735776
 20
1504.687264546716
 30
0.0
  0
VERTEX
  5
1168
  8
0
 10
1774.035919735776
 20
1549.730284591626
 30
0.0
  0
VERTEX
  5
1169
  8
0
 10
1774.835919735776
 20
1549.730284591626
 30
0.0
  0
VERTEX
  5
116A
  8
0
 10
1774.835919735776
 20
1504.687264546716
 30
0.0
  0
SEQEND
  5
157B
  8
0
  0
POLYLINE
  5
827
  8
0
 66
     1
 10
0.0
 20
0.0
 30
0.0
  0
VERTEX
  5
116B
  8
0
 10
1767.785919735776
 20
1504.687264546716
 30
0.0
  0
VERTEX
  5
116C
  8
0
 10
1767.785919735776
 20
1549.730284591626
 30
0.0
  0
VERTEX
  5
116D
  8
0
 10
1768.585919735776
 20
1549.730284591626
 30
0.0
  0
VERTEX
  5
116E
  8
0
 10
1768.585919735776
 20
1504.687264546716
 30
0.0
  0
SEQEND
  5
157C
  8
0
  0
POLYLINE
  5
828
  8
0
 66
     1
 10
0.0
 20
0.0
 30
0.0
  0
VERTEX
  5
116F
  8
0
 10
1761.535919735776
 20
1504.687264546716
 30
0.0
  0
VERTEX
  5
1170
  8
0
 10
1761.535919735776
 20
1549.730284591626
 30
0.0
  0
VERTEX
  5
1171
  8
0
 10
1762.335919735776
 20
1549.730284591626
 30
0.0
  0
VERTEX
  5
1172
  8
0
 10
1762.335919735776
 20
1504.687264546716
 30
0.0
  0
SEQEND
  5
157D
  8
0
  0
POLYLINE
  5
829
  8
0
 66
     1
 10
0.0
 20
0.0
 30
0.0
  0
VERTEX
  5
1173
  8
0
 10
1755.285919735776
 20
1504.687264546716
 30
0.0
  0
VERTEX
  5
1174
  8
0
 10
1755.285919735776
 20
1549.730284591626
 30
0.0
  0
VERTEX
  5
1175
  8
0
 10
1756.085919735776
 20
1549.730284591626
 30
0.0
  0
VERTEX
  5
1176
  8
0
 10
1756.085919735776
 20
1504.687264546716
 30
0.0
  0
SEQEND
  5
157E
  8
0
  0
POLYLINE
  5
82A
  8
0
 66
     1
 10
0.0
 20
0.0
 30
0.0
 70
     1
  0
VERTEX
  5
1177
  8
0
 10
1793.585919735776
 20
1559.730284591626
 30
0.0
  0
VERTEX
  5
1178
  8
0
 10
1792.785919735776
 20
1559.730284591626
 30
0.0
  0
VERTEX
  5
1179
  8
0
 10
1792.785919735776
 20
1599.730284591625
 30
0.0
  0
VERTEX
  5
117A
  8
0
 10
1793.585919735776
 20
1599.730284591625
 30
0.0
  0
SEQEND
  5
157F
  8
0
  0
POLYLINE
  5
82B
  8
0
 66
     1
 10
0.0
 20
0.0
 30
0.0
 70
     1
  0
VERTEX
  5
117B
  8
0
 10
1787.335919735776
 20
1559.730284591626
 30
0.0
  0
VERTEX
  5
117C
  8
0
 10
1786.535919735776
 20
1559.730284591626
 30
0.0
  0
VERTEX
  5
117D
  8
0
 10
1786.535919735776
 20
1599.730284591625
 30
0.0
  0
VERTEX
  5
117E
  8
0
 10
1787.335919735776
 20
1599.730284591625
 30
0.0
  0
SEQEND
  5
1580
  8
0
  0
POLYLINE
  5
82C
  8
0
 66
     1
 10
0.0
 20
0.0
 30
0.0
 70
     1
  0
VERTEX
  5
117F
  8
0
 10
1781.085919735776
 20
1559.730284591626
 30
0.0
  0
VERTEX
  5
1180
  8
0
 10
1780.285919735776
 20
1559.730284591626
 30
0.0
  0
VERTEX
  5
1181
  8
0
 10
1780.285919735776
 20
1599.730284591625
 30
0.0
  0
VERTEX
  5
1182
  8
0
 10
1781.085919735776
 20
1599.730284591625
 30
0.0
  0
SEQEND
  5
1581
  8
0
  0
POLYLINE
  5
82D
  8
0
 66
     1
 10
0.0
 20
0.0
 30
0.0
 70
     1
  0
VERTEX
  5
1183
  8
0
 10
1774.835919735776
 20
1559.730284591626
 30
0.0
  0
VERTEX
  5
1184
  8
0
 10
1774.035919735776
 20
1559.730284591626
 30
0.0
  0
VERTEX
  5
1185
  8
0
 10
1774.035919735776
 20
1599.730284591625
 30
0.0
  0
VERTEX
  5
1186
  8
0
 10
1774.835919735776
 20
1599.730284591625
 30
0.0
  0
SEQEND
  5
1582
  8
0
  0
POLYLINE
  5
82E
  8
0
 66
     1
 10
0.0
 20
0.0
 30
0.0
 70
     1
  0
VERTEX
  5
1187
  8
0
 10
1768.585919735776
 20
1559.730284591626
 30
0.0
  0
VERTEX
  5
1188
  8
0
 10
1767.785919735776
 20
1559.730284591626
 30
0.0
  0
VERTEX
  5
1189
  8
0
 10
1767.785919735776
 20
1599.730284591625
 30
0.0
  0
VERTEX
  5
118A
  8
0
 10
1768.585919735776
 20
1599.730284591625
 30
0.0
  0
SEQEND
  5
1583
  8
0
  0
POLYLINE
  5
82F
  8
0
 66
     1
 10
0.0
 20
0.0
 30
0.0
 70
     1
  0
VERTEX
  5
118B
  8
0
 10
1762.335919735776
 20
1559.730284591626
 30
0.0
  0
VERTEX
  5
118C
  8
0
 10
1761.535919735776
 20
1559.730284591626
 30
0.0
  0
VERTEX
  5
118D
  8
0
 10
1761.535919735776
 20
1599.730284591625
 30
0.0
  0
VERTEX
  5
118E
  8
0
 10
1762.335919735776
 20
1599.730284591625
 30
0.0
  0
SEQEND
  5
1584
  8
0
  0
POLYLINE
  5
830
  8
0
 66
     1
 10
0.0
 20
0.0
 30
0.0
 70
     1
  0
VERTEX
  5
118F
  8
0
 10
1756.085919735776
 20
1559.730284591626
 30
0.0
  0
VERTEX
  5
1190
  8
0
 10
1755.285919735776
 20
1559.730284591626
 30
0.0
  0
VERTEX
  5
1191
  8
0
 10
1755.285919735776
 20
1599.730284591625
 30
0.0
  0
VERTEX
  5
1192
  8
0
 10
1756.085919735776
 20
1599.730284591625
 30
0.0
  0
SEQEND
  5
1585
  8
0
  0
POLYLINE
  5
831
  8
0
 66
     1
 10
0.0
 20
0.0
 30
0.0
  0
VERTEX
  5
1193
  8
0
 10
1893.585919735776
 20
1562.838056911924
 30
0.0
  0
VERTEX
  5
1194
  8
0
 10
1893.585919735776
 20
1559.730284591626
 30
0.0
  0
VERTEX
  5
1195
  8
0
 10
1892.785919735776
 20
1559.730284591626
 30
0.0
  0
VERTEX
  5
1196
  8
0
 10
1892.785919735776
 20
1564.633440854867
 30
0.0
  0
SEQEND
  5
1586
  8
0
  0
POLYLINE
  5
832
  8
0
 66
     1
 10
0.0
 20
0.0
 30
0.0
  0
VERTEX
  5
1197
  8
0
 10
1887.335919735776
 20
1575.518012892307
 30
0.0
  0
VERTEX
  5
1198
  8
0
 10
1887.335919735776
 20
1559.730284591626
 30
0.0
  0
VERTEX
  5
1199
  8
0
 10
1886.535919735776
 20
1559.730284591626
 30
0.0
  0
VERTEX
  5
119A
  8
0
 10
1886.535919735776
 20
1576.954194472253
 30
0.0
  0
SEQEND
  5
1587
  8
0
  0
POLYLINE
  5
833
  8
0
 66
     1
 10
0.0
 20
0.0
 30
0.0
  0
VERTEX
  5
119B
  8
0
 10
1881.085919735776
 20
1585.906598437778
 30
0.0
  0
VERTEX
  5
119C
  8
0
 10
1881.085919735776
 20
1559.730284591626
 30
0.0
  0
VERTEX
  5
119D
  8
0
 10
1880.285919735776
 20
1559.730284591626
 30
0.0
  0
VERTEX
  5
119E
  8
0
 10
1880.285919735776
 20
1587.114843677702
 30
0.0
  0
SEQEND
  5
1588
  8
0
  0
POLYLINE
  5
834
  8
0
 66
     1
 10
0.0
 20
0.0
 30
0.0
  0
VERTEX
  5
119F
  8
0
 10
1874.835919735776
 20
1594.759139298617
 30
0.0
  0
VERTEX
  5
11A0
  8
0
 10
1874.835919735776
 20
1559.730284591626
 30
0.0
  0
VERTEX
  5
11A1
  8
0
 10
1874.035919735776
 20
1559.730284591626
 30
0.0
  0
VERTEX
  5
11A2
  8
0
 10
1874.035919735776
 20
1595.803967914547
 30
0.0
  0
SEQEND
  5
1589
  8
0
  0
POLYLINE
  5
835
  8
0
 66
     1
 10
0.0
 20
0.0
 30
0.0
  0
VERTEX
  5
11A3
  8
0
 10
1868.585919735776
 20
1602.473862458744
 30
0.0
  0
VERTEX
  5
11A4
  8
0
 10
1868.585919735776
 20
1559.730284591626
 30
0.0
  0
VERTEX
  5
11A5
  8
0
 10
1867.785919735776
 20
1559.730284591626
 30
0.0
  0
VERTEX
  5
11A6
  8
0
 10
1867.785919735776
 20
1603.392647242513
 30
0.0
  0
SEQEND
  5
158A
  8
0
  0
POLYLINE
  5
836
  8
0
 66
     1
 10
0.0
 20
0.0
 30
0.0
  0
VERTEX
  5
11A7
  8
0
 10
1862.335919735776
 20
1609.291623151071
 30
0.0
  0
VERTEX
  5
11A8
  8
0
 10
1862.335919735776
 20
1559.730284591626
 30
0.0
  0
VERTEX
  5
11A9
  8
0
 10
1861.535919735776
 20
1559.730284591626
 30
0.0
  0
VERTEX
  5
11AA
  8
0
 10
1861.535919735776
 20
1610.108307156399
 30
0.0
  0
SEQEND
  5
158B
  8
0
  0
POLYLINE
  5
837
  8
0
 66
     1
 10
0.0
 20
0.0
 30
0.0
 70
     1
  0
VERTEX
  5
11AB
  8
0
 10
1856.085919735776
 20
1559.730284591626
 30
0.0
  0
VERTEX
  5
11AC
  8
0
 10
1855.285919735776
 20
1559.730284591626
 30
0.0
  0
VERTEX
  5
11AD
  8
0
 10
1855.285919735776
 20
1599.730284591625
 30
0.0
  0
VERTEX
  5
11AE
  8
0
 10
1856.085919735776
 20
1599.730284591625
 30
0.0
  0
SEQEND
  5
158C
  8
0
  0
POLYLINE
  5
838
  8
0
 66
     1
 10
0.0
 20
0.0
 30
0.0
  0
VERTEX
  5
11AF
  8
0
 10
1799.835919735776
 20
1648.643455503772
 30
0.0
  0
VERTEX
  5
11B0
  8
0
 10
1799.835919735776
 20
1609.730284591625
 30
0.0
  0
VERTEX
  5
11B1
  8
0
 10
1799.035919735776
 20
1609.730284591625
 30
0.0
  0
VERTEX
  5
11B2
  8
0
 10
1799.035919735776
 20
1648.910164781165
 30
0.0
  0
SEQEND
  5
158D
  8
0
  0
POLYLINE
  5
839
  8
0
 66
     1
 10
0.0
 20
0.0
 30
0.0
  0
VERTEX
  5
11B3
  8
0
 10
1793.585919735776
 20
1650.601652830168
 30
0.0
  0
VERTEX
  5
11B4
  8
0
 10
1793.585919735776
 20
1609.730284591625
 30
0.0
  0
VERTEX
  5
11B5
  8
0
 10
1792.785919735776
 20
1609.730284591625
 30
0.0
  0
VERTEX
  5
11B6
  8
0
 10
1792.785919735776
 20
1650.831794087522
 30
0.0
  0
SEQEND
  5
158E
  8
0
  0
POLYLINE
  5
83A
  8
0
 66
     1
 10
0.0
 20
0.0
 30
0.0
  0
VERTEX
  5
11B7
  8
0
 10
1787.335919735776
 20
1652.278710813994
 30
0.0
  0
VERTEX
  5
11B8
  8
0
 10
1787.335919735776
 20
1609.730284591625
 30
0.0
  0
VERTEX
  5
11B9
  8
0
 10
1786.535919735776
 20
1609.730284591625
 30
0.0
  0
VERTEX
  5
11BA
  8
0
 10
1786.535919735776
 20
1652.473570104512
 30
0.0
  0
SEQEND
  5
158F
  8
0
  0
POLYLINE
  5
83B
  8
0
 66
     1
 10
0.0
 20
0.0
 30
0.0
  0
VERTEX
  5
11BB
  8
0
 10
1781.085919735776
 20
1653.683823653151
 30
0.0
  0
VERTEX
  5
11BC
  8
0
 10
1781.085919735776
 20
1609.730284591625
 30
0.0
  0
VERTEX
  5
11BD
  8
0
 10
1780.285919735776
 20
1609.730284591625
 30
0.0
  0
VERTEX
  5
11BE
  8
0
 10
1780.285919735776
 20
1653.844443077368
 30
0.0
  0
SEQEND
  5
1590
  8
0
  0
POLYLINE
  5
83C
  8
0
 66
     1
 10
0.0
 20
0.0
 30
0.0
  0
VERTEX
  5
11BF
  8
0
 10
1774.835919735776
 20
1654.824387847069
 30
0.0
  0
VERTEX
  5
11C0
  8
0
 10
1774.835919735776
 20
1609.730284591625
 30
0.0
  0
VERTEX
  5
11C1
  8
0
 10
1774.035919735776
 20
1609.730284591625
 30
0.0
  0
VERTEX
  5
11C2
  8
0
 10
1774.035919735776
 20
1654.951595713955
 30
0.0
  0
SEQEND
  5
1591
  8
0
  0
POLYLINE
  5
83D
  8
0
 66
     1
 10
0.0
 20
0.0
 30
0.0
  0
VERTEX
  5
11C3
  8
0
 10
1768.585919735776
 20
1655.706210942978
 30
0.0
  0
VERTEX
  5
11C4
  8
0
 10
1768.585919735776
 20
1609.730284591625
 30
0.0
  0
VERTEX
  5
11C5
  8
0
 10
1767.785919735776
 20
1609.730284591625
 30
0.0
  0
VERTEX
  5
11C6
  8
0
 10
1767.785919735776
 20
1655.800644378785
 30
0.0
  0
SEQEND
  5
1592
  8
0
  0
POLYLINE
  5
83E
  8
0
 66
     1
 10
0.0
 20
0.0
 30
0.0
  0
VERTEX
  5
11C7
  8
0
 10
1762.335919735776
 20
1656.333666828193
 30
0.0
  0
VERTEX
  5
11C8
  8
0
 10
1762.335919735776
 20
1609.730284591625
 30
0.0
  0
VERTEX
  5
11C9
  8
0
 10
1761.535919735776
 20
1609.730284591625
 30
0.0
  0
VERTEX
  5
11CA
  8
0
 10
1761.535919735776
 20
1656.395788357059
 30
0.0
  0
SEQEND
  5
1593
  8
0
  0
POLYLINE
  5
83F
  8
0
 66
     1
 10
0.0
 20
0.0
 30
0.0
  0
VERTEX
  5
11CB
  8
0
 10
1756.085919735776
 20
1656.709807756289
 30
0.0
  0
VERTEX
  5
11CC
  8
0
 10
1756.085919735776
 20
1631.430386279487
 30
0.0
  0
SEQEND
  5
1594
  8
0
  0
POLYLINE
  5
840
  8
0
 66
     1
 10
0.0
 20
0.0
 30
0.0
  0
VERTEX
  5
11CD
  8
0
 10
1793.585919735776
 20
1650.601652830168
 30
0.0
  0
VERTEX
  5
11CE
  8
0
 10
1793.585919735776
 20
1609.730284591625
 30
0.0
  0
VERTEX
  5
11CF
  8
0
 10
1792.785919735776
 20
1609.730284591625
 30
0.0
  0
VERTEX
  5
11D0
  8
0
 10
1792.785919735776
 20
1650.831794087522
 30
0.0
  0
SEQEND
  5
1595
  8
0
  0
POLYLINE
  5
841
  8
0
 66
     1
 10
0.0
 20
0.0
 30
0.0
  0
VERTEX
  5
11D1
  8
0
 10
1787.335919735776
 20
1652.278710813994
 30
0.0
  0
VERTEX
  5
11D2
  8
0
 10
1787.335919735776
 20
1609.730284591625
 30
0.0
  0
VERTEX
  5
11D3
  8
0
 10
1786.535919735776
 20
1609.730284591625
 30
0.0
  0
VERTEX
  5
11D4
  8
0
 10
1786.535919735776
 20
1652.473570104512
 30
0.0
  0
SEQEND
  5
1596
  8
0
  0
POLYLINE
  5
842
  8
0
 66
     1
 10
0.0
 20
0.0
 30
0.0
  0
VERTEX
  5
11D5
  8
0
 10
1781.085919735776
 20
1653.683823653151
 30
0.0
  0
VERTEX
  5
11D6
  8
0
 10
1781.085919735776
 20
1609.730284591625
 30
0.0
  0
VERTEX
  5
11D7
  8
0
 10
1780.285919735776
 20
1609.730284591625
 30
0.0
  0
VERTEX
  5
11D8
  8
0
 10
1780.285919735776
 20
1653.844443077368
 30
0.0
  0
SEQEND
  5
1597
  8
0
  0
POLYLINE
  5
843
  8
0
 66
     1
 10
0.0
 20
0.0
 30
0.0
  0
VERTEX
  5
11D9
  8
0
 10
1774.835919735776
 20
1654.824387847069
 30
0.0
  0
VERTEX
  5
11DA
  8
0
 10
1774.835919735776
 20
1609.730284591625
 30
0.0
  0
VERTEX
  5
11DB
  8
0
 10
1774.035919735776
 20
1609.730284591625
 30
0.0
  0
VERTEX
  5
11DC
  8
0
 10
1774.035919735776
 20
1654.951595713955
 30
0.0
  0
SEQEND
  5
1598
  8
0
  0
POLYLINE
  5
844
  8
0
 66
     1
 10
0.0
 20
0.0
 30
0.0
  0
VERTEX
  5
11DD
  8
0
 10
1768.585919735776
 20
1655.706210942978
 30
0.0
  0
VERTEX
  5
11DE
  8
0
 10
1768.585919735776
 20
1609.730284591625
 30
0.0
  0
VERTEX
  5
11DF
  8
0
 10
1767.785919735776
 20
1609.730284591625
 30
0.0
  0
VERTEX
  5
11E0
  8
0
 10
1767.785919735776
 20
1655.800644378785
 30
0.0
  0
SEQEND
  5
1599
  8
0
  0
POLYLINE
  5
845
  8
0
 66
     1
 10
0.0
 20
0.0
 30
0.0
  0
VERTEX
  5
11E1
  8
0
 10
1762.335919735776
 20
1656.333666828193
 30
0.0
  0
VERTEX
  5
11E2
  8
0
 10
1762.335919735776
 20
1609.730284591625
 30
0.0
  0
VERTEX
  5
11E3
  8
0
 10
1761.535919735776
 20
1609.730284591625
 30
0.0
  0
VERTEX
  5
11E4
  8
0
 10
1761.535919735776
 20
1656.395788357059
 30
0.0
  0
SEQEND
  5
159A
  8
0
  0
POLYLINE
  5
846
  8
0
 66
     1
 10
0.0
 20
0.0
 30
0.0
  0
VERTEX
  5
11E5
  8
0
 10
1756.085919735776
 20
1656.709807756289
 30
0.0
  0
VERTEX
  5
11E6
  8
0
 10
1756.085919735776
 20
1631.430386279487
 30
0.0
  0
SEQEND
  5
159B
  8
0
  0
POLYLINE
  5
847
  8
0
 66
     1
 10
0.0
 20
0.0
 30
0.0
  0
VERTEX
  5
11E7
  8
0
 10
1906.085919735776
 20
1514.595668007645
 30
0.0
  0
VERTEX
  5
11E8
  8
0
 10
1906.085919735776
 20
1504.687264546716
 30
0.0
  0
SEQEND
  5
159C
  8
0
  0
POLYLINE
  5
848
  8
0
 66
     1
 10
0.0
 20
0.0
 30
0.0
  0
VERTEX
  5
11E9
  8
0
 10
1905.285919735776
 20
1504.687264546716
 30
0.0
  0
VERTEX
  5
11EA
  8
0
 10
1905.285919735776
 20
1521.453157942454
 30
0.0
  0
SEQEND
  5
159D
  8
0
  0
POLYLINE
  5
849
  8
0
 66
     1
 10
0.0
 20
0.0
 30
0.0
  0
VERTEX
  5
11EB
  8
0
 10
1899.835919735776
 20
1546.016326446957
 30
0.0
  0
VERTEX
  5
11EC
  8
0
 10
1899.835919735776
 20
1504.687264546716
 30
0.0
  0
SEQEND
  5
159E
  8
0
  0
POLYLINE
  5
84A
  8
0
 66
     1
 10
0.0
 20
0.0
 30
0.0
  0
VERTEX
  5
11ED
  8
0
 10
1899.035919735776
 20
1504.687264546716
 30
0.0
  0
VERTEX
  5
11EE
  8
0
 10
1899.035919735776
 20
1548.539925629572
 30
0.0
  0
SEQEND
  5
159F
  8
0
  0
POLYLINE
  5
84B
  8
0
 66
     1
 10
0.0
 20
0.0
 30
0.0
  0
VERTEX
  5
11EF
  8
0
 10
1892.785919735776
 20
1504.687264546716
 30
0.0
  0
VERTEX
  5
11F0
  8
0
 10
1892.785919735776
 20
1549.730284591626
 30
0.0
  0
VERTEX
  5
11F1
  8
0
 10
1893.585919735776
 20
1549.730284591626
 30
0.0
  0
VERTEX
  5
11F2
  8
0
 10
1893.585919735776
 20
1504.687264546716
 30
0.0
  0
SEQEND
  5
15A0
  8
0
  0
POLYLINE
  5
84C
  8
0
 66
     1
 10
0.0
 20
0.0
 30
0.0
  0
VERTEX
  5
11F3
  8
0
 10
1886.535919735776
 20
1504.687264546716
 30
0.0
  0
VERTEX
  5
11F4
  8
0
 10
1886.535919735776
 20
1549.730284591626
 30
0.0
  0
VERTEX
  5
11F5
  8
0
 10
1887.335919735776
 20
1549.730284591626
 30
0.0
  0
VERTEX
  5
11F6
  8
0
 10
1887.335919735776
 20
1504.687264546716
 30
0.0
  0
SEQEND
  5
15A1
  8
0
  0
POLYLINE
  5
84D
  8
0
 66
     1
 10
0.0
 20
0.0
 30
0.0
  0
VERTEX
  5
11F7
  8
0
 10
1880.285919735776
 20
1505.980683585551
 30
0.0
  0
VERTEX
  5
11F8
  8
0
 10
1880.285919735776
 20
1549.730284591626
 30
0.0
  0
VERTEX
  5
11F9
  8
0
 10
1881.085919735776
 20
1549.730284591626
 30
0.0
  0
VERTEX
  5
11FA
  8
0
 10
1881.085919735776
 20
1505.892372757436
 30
0.0
  0
SEQEND
  5
15A2
  8
0
  0
POLYLINE
  5
84E
  8
0
 66
     1
 10
0.0
 20
0.0
 30
0.0
  0
VERTEX
  5
11FB
  8
0
 10
1874.035919735776
 20
1504.687264546716
 30
0.0
  0
VERTEX
  5
11FC
  8
0
 10
1874.035919735776
 20
1549.730284591626
 30
0.0
  0
VERTEX
  5
11FD
  8
0
 10
1874.835919735776
 20
1549.730284591626
 30
0.0
  0
VERTEX
  5
11FE
  8
0
 10
1874.835919735776
 20
1504.687264546716
 30
0.0
  0
SEQEND
  5
15A3
  8
0
  0
POLYLINE
  5
84F
  8
0
 66
     1
 10
0.0
 20
0.0
 30
0.0
  0
VERTEX
  5
11FF
  8
0
 10
1867.785919735776
 20
1504.687264546716
 30
0.0
  0
VERTEX
  5
1200
  8
0
 10
1867.785919735776
 20
1549.730284591626
 30
0.0
  0
VERTEX
  5
1201
  8
0
 10
1868.585919735776
 20
1549.730284591626
 30
0.0
  0
VERTEX
  5
1202
  8
0
 10
1868.585919735776
 20
1504.687264546716
 30
0.0
  0
SEQEND
  5
15A4
  8
0
  0
POLYLINE
  5
850
  8
0
 66
     1
 10
0.0
 20
0.0
 30
0.0
  0
VERTEX
  5
1203
  8
0
 10
1861.535919735776
 20
1504.687264546716
 30
0.0
  0
VERTEX
  5
1204
  8
0
 10
1861.535919735776
 20
1549.730284591626
 30
0.0
  0
VERTEX
  5
1205
  8
0
 10
1862.335919735776
 20
1549.730284591626
 30
0.0
  0
VERTEX
  5
1206
  8
0
 10
1862.335919735776
 20
1504.687264546716
 30
0.0
  0
SEQEND
  5
15A5
  8
0
  0
POLYLINE
  5
851
  8
0
 66
     1
 10
0.0
 20
0.0
 30
0.0
  0
VERTEX
  5
1207
  8
0
 10
1855.285919735776
 20
1504.687264546716
 30
0.0
  0
VERTEX
  5
1208
  8
0
 10
1855.285919735776
 20
1549.730284591626
 30
0.0
  0
VERTEX
  5
1209
  8
0
 10
1856.085919735776
 20
1549.730284591626
 30
0.0
  0
VERTEX
  5
120A
  8
0
 10
1856.085919735776
 20
1504.687264546716
 30
0.0
  0
SEQEND
  5
15A6
  8
0
  0
POLYLINE
  5
852
  8
0
 66
     1
 10
0.0
 20
0.0
 30
0.0
  0
VERTEX
  5
120B
  8
0
 10
1856.085919735776
 20
1615.371321028018
 30
0.0
  0
VERTEX
  5
120C
  8
0
 10
1856.085919735776
 20
1609.730284591625
 30
0.0
  0
VERTEX
  5
120D
  8
0
 10
1855.285919735776
 20
1609.730284591625
 30
0.0
  0
VERTEX
  5
120E
  8
0
 10
1855.285919735776
 20
1616.102326226534
 30
0.0
  0
SEQEND
  5
15A7
  8
0
  0
POLYLINE
  5
853
  8
0
 66
     1
 10
0.0
 20
0.0
 30
0.0
  0
VERTEX
  5
120F
  8
0
 10
1837.335919735776
 20
1630.15594550308
 30
0.0
  0
VERTEX
  5
1210
  8
0
 10
1837.335919735776
 20
1609.730284591625
 30
0.0
  0
VERTEX
  5
1211
  8
0
 10
1836.535919735776
 20
1609.730284591625
 30
0.0
  0
VERTEX
  5
1212
  8
0
 10
1836.535919735776
 20
1630.689873568538
 30
0.0
  0
SEQEND
  5
15A8
  8
0
  0
POLYLINE
  5
854
  8
0
 66
     1
 10
0.0
 20
0.0
 30
0.0
  0
VERTEX
  5
1213
  8
0
 10
1831.085919735776
 20
1634.144090899091
 30
0.0
  0
VERTEX
  5
1214
  8
0
 10
1831.085919735776
 20
1609.730284591625
 30
0.0
  0
VERTEX
  5
1215
  8
0
 10
1830.285919735776
 20
1609.730284591625
 30
0.0
  0
VERTEX
  5
1216
  8
0
 10
1830.285919735776
 20
1634.625136303243
 30
0.0
  0
SEQEND
  5
15A9
  8
0
  0
POLYLINE
  5
855
  8
0
 66
     1
 10
0.0
 20
0.0
 30
0.0
  0
VERTEX
  5
1217
  8
0
 10
1824.835919735776
 20
1637.734197987117
 30
0.0
  0
VERTEX
  5
1218
  8
0
 10
1824.835919735776
 20
1609.730284591625
 30
0.0
  0
VERTEX
  5
1219
  8
0
 10
1824.035919735776
 20
1609.730284591625
 30
0.0
  0
VERTEX
  5
121A
  8
0
 10
1824.035919735776
 20
1638.16662187669
 30
0.0
  0
SEQEND
  5
15AA
  8
0
  0
POLYLINE
  5
856
  8
0
 66
     1
 10
0.0
 20
0.0
 30
0.0
  0
VERTEX
  5
121B
  8
0
 10
1818.585919735776
 20
1640.956648399341
 30
0.0
  0
VERTEX
  5
121C
  8
0
 10
1818.585919735776
 20
1609.730284591625
 30
0.0
  0
VERTEX
  5
121D
  8
0
 10
1817.785919735776
 20
1609.730284591625
 30
0.0
  0
VERTEX
  5
121E
  8
0
 10
1817.785919735776
 20
1641.343898382845
 30
0.0
  0
SEQEND
  5
15AB
  8
0
  0
POLYLINE
  5
857
  8
0
 66
     1
 10
0.0
 20
0.0
 30
0.0
  0
VERTEX
  5
121F
  8
0
 10
1812.335919735776
 20
1643.836126711132
 30
0.0
  0
VERTEX
  5
1220
  8
0
 10
1812.335919735776
 20
1609.730284591625
 30
0.0
  0
VERTEX
  5
1221
  8
0
 10
1811.535919735776
 20
1609.730284591625
 30
0.0
  0
VERTEX
  5
1222
  8
0
 10
1811.535919735776
 20
1644.181018462069
 30
0.0
  0
SEQEND
  5
15AC
  8
0
  0
POLYLINE
  5
858
  8
0
 66
     1
 10
0.0
 20
0.0
 30
0.0
  0
VERTEX
  5
1223
  8
0
 10
1849.835919735776
 20
1620.824271361994
 30
0.0
  0
VERTEX
  5
1224
  8
0
 10
1849.835919735776
 20
1609.730284591625
 30
0.0
  0
VERTEX
  5
1225
  8
0
 10
1849.035919735776
 20
1609.730284591625
 30
0.0
  0
VERTEX
  5
1226
  8
0
 10
1849.035919735776
 20
1621.481427164071
 30
0.0
  0
SEQEND
  5
15AD
  8
0
  0
POLYLINE
  5
859
  8
0
 66
     1
 10
0.0
 20
0.0
 30
0.0
  0
VERTEX
  5
1227
  8
0
 10
1843.585663910858
 20
1625.732130656441
 30
0.0
  0
VERTEX
  5
1228
  8
0
 10
1843.585919735776
 20
1609.730284591625
 30
0.0
  0
VERTEX
  5
1229
  8
0
 10
1842.785919735776
 20
1609.730284591625
 30
0.0
  0
VERTEX
  5
122A
  8
0
 10
1842.785919735776
 20
1626.324085617973
 30
0.0
  0
SEQEND
  5
15AE
  8
0
  0
POLYLINE
  5
85A
  8
0
 66
     1
 10
0.0
 20
0.0
 30
0.0
  0
VERTEX
  5
122B
  8
0
 10
1837.335919735776
 20
1630.15594550308
 30
0.0
  0
VERTEX
  5
122C
  8
0
 10
1837.335919735776
 20
1609.730284591625
 30
0.0
  0
VERTEX
  5
122D
  8
0
 10
1836.535919735776
 20
1609.730284591625
 30
0.0
  0
VERTEX
  5
122E
  8
0
 10
1836.535919735776
 20
1630.689873568538
 30
0.0
  0
SEQEND
  5
15AF
  8
0
  0
POLYLINE
  5
85B
  8
0
 66
     1
 10
0.0
 20
0.0
 30
0.0
  0
VERTEX
  5
122F
  8
0
 10
1831.085919735776
 20
1634.144090899091
 30
0.0
  0
VERTEX
  5
1230
  8
0
 10
1831.085919735776
 20
1609.730284591625
 30
0.0
  0
VERTEX
  5
1231
  8
0
 10
1830.285919735776
 20
1609.730284591625
 30
0.0
  0
VERTEX
  5
1232
  8
0
 10
1830.285919735776
 20
1634.625136303243
 30
0.0
  0
SEQEND
  5
15B0
  8
0
  0
POLYLINE
  5
85C
  8
0
 66
     1
 10
0.0
 20
0.0
 30
0.0
  0
VERTEX
  5
1233
  8
0
 10
1824.835919735776
 20
1637.734197987117
 30
0.0
  0
VERTEX
  5
1234
  8
0
 10
1824.835919735776
 20
1609.730284591625
 30
0.0
  0
VERTEX
  5
1235
  8
0
 10
1824.035919735776
 20
1609.730284591625
 30
0.0
  0
VERTEX
  5
1236
  8
0
 10
1824.035919735776
 20
1638.16662187669
 30
0.0
  0
SEQEND
  5
15B1
  8
0
  0
POLYLINE
  5
85D
  8
0
 66
     1
 10
0.0
 20
0.0
 30
0.0
  0
VERTEX
  5
1237
  8
0
 10
1818.585919735776
 20
1640.956648399341
 30
0.0
  0
VERTEX
  5
1238
  8
0
 10
1818.585919735776
 20
1609.730284591625
 30
0.0
  0
VERTEX
  5
1239
  8
0
 10
1817.785919735776
 20
1609.730284591625
 30
0.0
  0
VERTEX
  5
123A
  8
0
 10
1817.785919735776
 20
1641.343898382845
 30
0.0
  0
SEQEND
  5
15B2
  8
0
  0
POLYLINE
  5
85E
  8
0
 66
     1
 10
0.0
 20
0.0
 30
0.0
  0
VERTEX
  5
123B
  8
0
 10
1812.335919735776
 20
1643.836126711132
 30
0.0
  0
VERTEX
  5
123C
  8
0
 10
1812.335919735776
 20
1609.730284591625
 30
0.0
  0
VERTEX
  5
123D
  8
0
 10
1811.535919735776
 20
1609.730284591625
 30
0.0
  0
VERTEX
  5
123E
  8
0
 10
1811.535919735776
 20
1644.181018462069
 30
0.0
  0
SEQEND
  5
15B3
  8
0
  0
POLYLINE
  5
85F
  8
0
 66
     1
 10
0.0
 20
0.0
 30
0.0
  0
VERTEX
  5
123F
  8
0
 10
1806.085919735776
 20
1646.392850030246
 30
0.0
  0
VERTEX
  5
1240
  8
0
 10
1806.085919735776
 20
1609.730284591625
 30
0.0
  0
VERTEX
  5
1241
  8
0
 10
1805.285919735776
 20
1609.730284591625
 30
0.0
  0
VERTEX
  5
1242
  8
0
 10
1805.285919735776
 20
1646.69769724191
 30
0.0
  0
SEQEND
  5
15B4
  8
0
  0
ARC
  5
860
  8
0
 10
1749.781199809288
 20
1499.83644957636
 30
0.0
 40
157.0
 50
87.69852864842231
 51
87.99068868423461
  0
ARC
  5
861
  8
0
 10
1749.781199809288
 20
1499.83644957636
 30
0.0
 40
157.0
 50
5.394213104887728
 51
7.913969427843528
  0
ARC
  5
862
  8
0
 10
1749.781199809288
 20
1499.83644957636
 30
0.0
 40
157.0
 50
12.75389609308026
 51
14.01513923517281
  0
ARC
  5
863
  8
0
 10
1749.781199809288
 20
1499.83644957636
 30
0.0
 40
157.0
 50
17.105935801645
 51
18.07208078053471
  0
ARC
  5
864
  8
0
 10
1749.781199809288
 20
1499.83644957636
 30
0.0
 40
157.0
 50
20.69223397429472
 51
21.50331027055506
  0
ARC
  5
865
  8
0
 10
1749.781199809288
 20
1499.83644957636
 30
0.0
 40
157.0
 50
23.65847979240879
 51
24.37579634215335
  0
ARC
  5
866
  8
0
 10
1749.781199809288
 20
1499.83644957636
 30
0.0
 40
157.0
 50
26.40370374990028
 51
27.05283826234661
  0
ARC
  5
867
  8
0
 10
1749.781199809288
 20
1499.83644957636
 30
0.0
 40
157.0
 50
28.8192571393583
 51
29.41921018012784
  0
ARC
  5
868
  8
0
 10
1749.781199809288
 20
1499.83644957636
 30
0.0
 40
157.0
 50
31.14356398413963
 51
31.7035491945146
  0
ARC
  5
869
  8
0
 10
1749.781199809288
 20
1499.83644957636
 30
0.0
 40
157.0
 50
33.24481235428533
 51
33.77364631414196
  0
ARC
  5
86A
  8
0
 10
1749.781199809288
 20
1499.83644957636
 30
0.0
 40
157.0
 50
35.32868687431977
 51
35.83046983872057
  0
ARC
  5
86B
  8
0
 10
1749.781199809288
 20
1499.83644957636
 30
0.0
 40
157.0
 50
37.20028804309695
 51
37.68052593197156
  0
ARC
  5
86C
  8
0
 10
1749.781199809288
 20
1499.83644957636
 30
0.0
 40
157.0
 50
39.10065032873418
 51
39.56129127172652
  0
ARC
  5
86D
  8
0
 10
1749.781199809288
 20
1499.83644957636
 30
0.0
 40
157.0
 50
40.82429130393368
 51
41.26888697782245
  0
ARC
  5
86E
  8
0
 10
1749.781199809288
 20
1499.83644957636
 30
0.0
 40
157.0
 50
42.58872001189502
 51
43.01838795270701
  0
ARC
  5
86F
  8
0
 10
1749.781199809288
 20
1499.83644957636
 30
0.0
 40
157.0
 50
44.20012849714546
 51
44.61734089776043
  0
ARC
  5
870
  8
0
 10
1749.781199809288
 20
1499.83644957636
 30
0.0
 40
157.0
 50
45.85940595254264
 51
46.26484496047448
  0
ARC
  5
871
  8
0
 10
1749.781199809288
 20
1499.83644957636
 30
0.0
 40
157.0
 50
47.38254977124841
 51
47.77803116634455
  0
ARC
  5
872
  8
0
 10
1749.781199809288
 20
1499.83644957636
 30
0.0
 40
157.0
 50
48.7941672663321
 51
49.18108219669527
  0
ARC
  5
873
  8
0
 10
1749.781199809288
 20
1499.83644957636
 30
0.0
 40
157.0
 50
50.40987289053469
 51
50.78769862251919
  0
ARC
  5
874
  8
0
 10
1749.781199809288
 20
1499.83644957636
 30
0.0
 40
157.0
 50
51.75998107477663
 51
52.13075180392702
  0
ARC
  5
875
  8
0
 10
1749.781199809288
 20
1499.83644957636
 30
0.0
 40
157.0
 50
53.31032428752638
 51
53.67343713573519
  0
ARC
  5
876
  8
0
 10
1749.781199809288
 20
1499.83644957636
 30
0.0
 40
157.0
 50
54.60934486016462
 51
54.96668244890565
  0
ARC
  5
877
  8
0
 10
1749.781199809288
 20
1499.83644957636
 30
0.0
 40
157.0
 50
56.10495163292994
 51
56.45595647881284
  0
ARC
  5
878
  8
0
 10
1749.781199809288
 20
1499.83644957636
 30
0.0
 40
157.0
 50
57.3613264603571
 51
57.70736040497026
  0
ARC
  5
879
  8
0
 10
1749.781199809288
 20
1499.83644957636
 30
0.0
 40
157.0
 50
57.3613264603571
 51
57.70736040497026
  0
ARC
  5
87A
  8
0
 10
1749.781199809288
 20
1499.83644957636
 30
0.0
 40
157.0
 50
58.81088771740566
 51
59.15155746122773
  0
ARC
  5
87B
  8
0
 10
1749.781199809288
 20
1499.83644957636
 30
0.0
 40
157.0
 50
60.03106467998655
 51
60.36750987367993
  0
ARC
  5
87C
  8
0
 10
1749.781199809288
 20
1499.83644957636
 30
0.0
 40
157.0
 50
60.03106467998655
 51
60.36750987367993
  0
ARC
  5
87D
  8
0
 10
1749.781199809288
 20
1499.83644957636
 30
0.0
 40
157.0
 50
61.44151684353316
 51
61.77339129953184
  0
ARC
  5
87E
  8
0
 10
1749.781199809288
 20
1499.83644957636
 30
0.0
 40
157.0
 50
62.63086427011498
 51
62.95913180077627
  0
ARC
  5
87F
  8
0
 10
1749.781199809288
 20
1499.83644957636
 30
0.0
 40
157.0
 50
64.00793775217383
 51
64.33229739343564
  0
ARC
  5
880
  8
0
 10
1749.781199809288
 20
1499.83644957636
 30
0.0
 40
157.0
 50
65.1709334914067
 51
65.49220684772179
  0
ARC
  5
881
  8
0
 10
1749.781199809288
 20
1499.83644957636
 30
0.0
 40
157.0
 50
66.51945176209514
 51
66.83738081134292
  0
ARC
  5
882
  8
0
 10
1749.781199809288
 20
1499.83644957636
 30
0.0
 40
157.0
 50
67.6598979623263
 51
67.97518708492788
  0
ARC
  5
883
  8
0
 10
1749.781199809288
 20
1499.83644957636
 30
0.0
 40
157.0
 50
68.98399085855355
 51
69.29642271342577
  0
ARC
  5
884
  8
0
 10
1749.781199809288
 20
1499.83644957636
 30
0.0
 40
157.0
 50
70.10516927172796
 51
70.41534994409298
  0
ARC
  5
885
  8
0
 10
1749.781199809288
 20
1499.83644957636
 30
0.0
 40
157.0
 50
71.40842923506882
 51
71.71618002363498
  0
ARC
  5
886
  8
0
 10
1749.781199809288
 20
1499.83644957636
 30
0.0
 40
157.0
 50
72.61604273409198
 51
72.92171541954231
  0
ARC
  5
887
  8
0
 10
1749.781199809288
 20
1499.83644957636
 30
0.0
 40
157.0
 50
73.79881571438618
 51
74.10260967663665
  0
ARC
  5
888
  8
0
 10
1749.781199809288
 20
1499.83644957636
 30
0.0
 40
157.0
 50
74.99136135793044
 51
75.2934135117547
  0
ARC
  5
889
  8
0
 10
1749.781199809288
 20
1499.83644957636
 30
0.0
 40
157.0
 50
76.16055121808947
 51
76.46104034507908
  0
ARC
  5
88A
  8
0
 10
1749.781199809288
 20
1499.83644957636
 30
0.0
 40
157.0
 50
77.34054841737183
 51
77.63960173980537
  0
ARC
  5
88B
  8
0
 10
1749.781199809288
 20
1499.83644957636
 30
0.0
 40
157.0
 50
78.498527373668
 51
78.79630694978181
  0
ARC
  5
88C
  8
0
 10
1749.781199809288
 20
1499.83644957636
 30
0.0
 40
157.0
 50
79.66828241877901
 51
79.9649085549032
  0
ARC
  5
88D
  8
0
 10
1749.781199809288
 20
1499.83644957636
 30
0.0
 40
157.0
 50
80.81723727057452
 51
81.11285846382478
  0
ARC
  5
88E
  8
0
 10
1749.781199809288
 20
1499.83644957636
 30
0.0
 40
157.0
 50
81.97889110111993
 51
82.2736230705599
  0
ARC
  5
88F
  8
0
 10
1749.781199809288
 20
1499.83644957636
 30
0.0
 40
157.0
 50
83.12086611265633
 51
83.4148464322992
  0
ARC
  5
890
  8
0
 10
1749.781199809288
 20
1499.83644957636
 30
0.0
 40
157.0
 50
84.27643418982869
 51
84.56977600887566
  0
ARC
  5
891
  8
0
 10
1749.781199809288
 20
1499.83644957636
 30
0.0
 40
157.0
 50
85.41336737422009
 51
85.70619959865792
  0
ARC
  5
892
  8
0
 10
1749.781199809288
 20
1499.83644957636
 30
0.0
 40
157.0
 50
86.56477390684768
 51
86.85720892733595
  0
POLYLINE
  5
893
  8
0
 66
     1
 10
0.0
 20
0.0
 30
0.0
 70
     1
  0
VERTEX
  5
1243
  8
0
 10
1796.614752023637
 20
1534.156111814229
 30
0.0
  0
VERTEX
  5
1244
  8
0
 10
1795.814752023637
 20
1534.156111814229
 30
0.0
  0
VERTEX
  5
1245
  8
0
 10
1795.814752023637
 20
1574.156111814229
 30
0.0
  0
VERTEX
  5
1246
  8
0
 10
1796.614752023637
 20
1574.156111814229
 30
0.0
  0
SEQEND
  5
15B5
  8
0
  0
POLYLINE
  5
894
  8
0
 66
     1
 10
0.0
 20
0.0
 30
0.0
 70
     1
  0
VERTEX
  5
1247
  8
0
 10
1790.364752023637
 20
1534.156111814229
 30
0.0
  0
VERTEX
  5
1248
  8
0
 10
1789.564752023637
 20
1534.156111814229
 30
0.0
  0
VERTEX
  5
1249
  8
0
 10
1789.564752023637
 20
1574.156111814229
 30
0.0
  0
VERTEX
  5
124A
  8
0
 10
1790.364752023637
 20
1574.156111814229
 30
0.0
  0
SEQEND
  5
15B6
  8
0
  0
POLYLINE
  5
895
  8
0
 66
     1
 10
0.0
 20
0.0
 30
0.0
 70
     1
  0
VERTEX
  5
124B
  8
0
 10
1784.114752023637
 20
1534.156111814229
 30
0.0
  0
VERTEX
  5
124C
  8
0
 10
1783.314752023637
 20
1534.156111814229
 30
0.0
  0
VERTEX
  5
124D
  8
0
 10
1783.314752023637
 20
1574.156111814229
 30
0.0
  0
VERTEX
  5
124E
  8
0
 10
1784.114752023637
 20
1574.156111814229
 30
0.0
  0
SEQEND
  5
15B7
  8
0
  0
POLYLINE
  5
896
  8
0
 66
     1
 10
0.0
 20
0.0
 30
0.0
 70
     1
  0
VERTEX
  5
124F
  8
0
 10
1777.864752023637
 20
1534.156111814229
 30
0.0
  0
VERTEX
  5
1250
  8
0
 10
1777.064752023637
 20
1534.156111814229
 30
0.0
  0
VERTEX
  5
1251
  8
0
 10
1777.064752023637
 20
1574.156111814229
 30
0.0
  0
VERTEX
  5
1252
  8
0
 10
1777.864752023637
 20
1574.156111814229
 30
0.0
  0
SEQEND
  5
15B8
  8
0
  0
POLYLINE
  5
897
  8
0
 66
     1
 10
0.0
 20
0.0
 30
0.0
 70
     1
  0
VERTEX
  5
1253
  8
0
 10
1771.614752023637
 20
1534.156111814229
 30
0.0
  0
VERTEX
  5
1254
  8
0
 10
1770.814752023637
 20
1534.156111814229
 30
0.0
  0
VERTEX
  5
1255
  8
0
 10
1770.814752023637
 20
1574.156111814229
 30
0.0
  0
VERTEX
  5
1256
  8
0
 10
1771.614752023637
 20
1574.156111814229
 30
0.0
  0
SEQEND
  5
15B9
  8
0
  0
POLYLINE
  5
898
  8
0
 66
     1
 10
0.0
 20
0.0
 30
0.0
 70
     1
  0
VERTEX
  5
1257
  8
0
 10
1765.364752023637
 20
1534.156111814229
 30
0.0
  0
VERTEX
  5
1258
  8
0
 10
1764.564752023637
 20
1534.156111814229
 30
0.0
  0
VERTEX
  5
1259
  8
0
 10
1764.564752023637
 20
1574.156111814229
 30
0.0
  0
VERTEX
  5
125A
  8
0
 10
1765.364752023637
 20
1574.156111814229
 30
0.0
  0
SEQEND
  5
15BA
  8
0
  0
POLYLINE
  5
899
  8
0
 66
     1
 10
0.0
 20
0.0
 30
0.0
 70
     1
  0
VERTEX
  5
125B
  8
0
 10
1759.114752023637
 20
1534.156111814229
 30
0.0
  0
VERTEX
  5
125C
  8
0
 10
1758.314752023637
 20
1534.156111814229
 30
0.0
  0
VERTEX
  5
125D
  8
0
 10
1758.314752023637
 20
1574.156111814229
 30
0.0
  0
VERTEX
  5
125E
  8
0
 10
1759.114752023637
 20
1574.156111814229
 30
0.0
  0
SEQEND
  5
15BB
  8
0
  0
POLYLINE
  5
89A
  8
0
 66
     1
 10
0.0
 20
0.0
 30
0.0
 70
     1
  0
VERTEX
  5
125F
  8
0
 10
1796.688654168949
 20
1587.099110266082
 30
0.0
  0
VERTEX
  5
1260
  8
0
 10
1795.888654168949
 20
1587.099110266082
 30
0.0
  0
VERTEX
  5
1261
  8
0
 10
1795.888654168949
 20
1627.099110266082
 30
0.0
  0
VERTEX
  5
1262
  8
0
 10
1796.68865416895
 20
1627.099110266082
 30
0.0
  0
SEQEND
  5
15BC
  8
0
  0
POLYLINE
  5
89B
  8
0
 66
     1
 10
0.0
 20
0.0
 30
0.0
 70
     1
  0
VERTEX
  5
1263
  8
0
 10
1790.438654168949
 20
1587.099110266082
 30
0.0
  0
VERTEX
  5
1264
  8
0
 10
1789.638654168949
 20
1587.099110266082
 30
0.0
  0
VERTEX
  5
1265
  8
0
 10
1789.638654168949
 20
1627.099110266082
 30
0.0
  0
VERTEX
  5
1266
  8
0
 10
1790.43865416895
 20
1627.099110266082
 30
0.0
  0
SEQEND
  5
15BD
  8
0
  0
POLYLINE
  5
89C
  8
0
 66
     1
 10
0.0
 20
0.0
 30
0.0
 70
     1
  0
VERTEX
  5
1267
  8
0
 10
1784.188654168949
 20
1587.099110266082
 30
0.0
  0
VERTEX
  5
1268
  8
0
 10
1783.388654168949
 20
1587.099110266082
 30
0.0
  0
VERTEX
  5
1269
  8
0
 10
1783.388654168949
 20
1627.099110266082
 30
0.0
  0
VERTEX
  5
126A
  8
0
 10
1784.18865416895
 20
1627.099110266082
 30
0.0
  0
SEQEND
  5
15BE
  8
0
  0
POLYLINE
  5
89D
  8
0
 66
     1
 10
0.0
 20
0.0
 30
0.0
 70
     1
  0
VERTEX
  5
126B
  8
0
 10
1777.938654168949
 20
1587.099110266082
 30
0.0
  0
VERTEX
  5
126C
  8
0
 10
1777.138654168949
 20
1587.099110266082
 30
0.0
  0
VERTEX
  5
126D
  8
0
 10
1777.138654168949
 20
1627.099110266082
 30
0.0
  0
VERTEX
  5
126E
  8
0
 10
1777.93865416895
 20
1627.099110266082
 30
0.0
  0
SEQEND
  5
15BF
  8
0
  0
POLYLINE
  5
89E
  8
0
 66
     1
 10
0.0
 20
0.0
 30
0.0
 70
     1
  0
VERTEX
  5
126F
  8
0
 10
1771.688654168949
 20
1587.099110266082
 30
0.0
  0
VERTEX
  5
1270
  8
0
 10
1770.888654168949
 20
1587.099110266082
 30
0.0
  0
VERTEX
  5
1271
  8
0
 10
1770.888654168949
 20
1627.099110266082
 30
0.0
  0
VERTEX
  5
1272
  8
0
 10
1771.68865416895
 20
1627.099110266082
 30
0.0
  0
SEQEND
  5
15C0
  8
0
  0
POLYLINE
  5
89F
  8
0
 66
     1
 10
0.0
 20
0.0
 30
0.0
 70
     1
  0
VERTEX
  5
1273
  8
0
 10
1765.438654168949
 20
1587.099110266082
 30
0.0
  0
VERTEX
  5
1274
  8
0
 10
1764.638654168949
 20
1587.099110266082
 30
0.0
  0
VERTEX
  5
1275
  8
0
 10
1764.638654168949
 20
1627.099110266082
 30
0.0
  0
VERTEX
  5
1276
  8
0
 10
1765.43865416895
 20
1627.099110266082
 30
0.0
  0
SEQEND
  5
15C1
  8
0
  0
POLYLINE
  5
8A0
  8
0
 66
     1
 10
0.0
 20
0.0
 30
0.0
 70
     1
  0
VERTEX
  5
1277
  8
0
 10
1759.188654168949
 20
1587.099110266082
 30
0.0
  0
VERTEX
  5
1278
  8
0
 10
1758.388654168949
 20
1587.099110266082
 30
0.0
  0
VERTEX
  5
1279
  8
0
 10
1758.388654168949
 20
1627.099110266082
 30
0.0
  0
VERTEX
  5
127A
  8
0
 10
1759.18865416895
 20
1627.099110266082
 30
0.0
  0
SEQEND
  5
15C2
  8
0
  0
POLYLINE
  5
8A1
  8
0
 66
     1
 10
0.0
 20
0.0
 30
0.0
  0
VERTEX
  5
127B
  8
0
 10
1896.653433318235
 20
1555.31209309758
 30
0.0
  0
VERTEX
  5
127C
  8
0
 10
1896.653433318235
 20
1534.156111814229
 30
0.0
  0
VERTEX
  5
127D
  8
0
 10
1895.853433318236
 20
1534.156111814229
 30
0.0
  0
VERTEX
  5
127E
  8
0
 10
1895.853433318236
 20
1557.385581608979
 30
0.0
  0
SEQEND
  5
15C3
  8
0
  0
POLYLINE
  5
8A2
  8
0
 66
     1
 10
0.0
 20
0.0
 30
0.0
  0
VERTEX
  5
127F
  8
0
 10
1890.403433318235
 20
1569.65326304529
 30
0.0
  0
VERTEX
  5
1280
  8
0
 10
1890.403433318235
 20
1534.156111814229
 30
0.0
  0
VERTEX
  5
1281
  8
0
 10
1889.603433318236
 20
1534.156111814229
 30
0.0
  0
VERTEX
  5
1282
  8
0
 10
1889.603433318236
 20
1571.241932675136
 30
0.0
  0
SEQEND
  5
15C4
  8
0
  0
POLYLINE
  5
8A3
  8
0
 66
     1
 10
0.0
 20
0.0
 30
0.0
  0
VERTEX
  5
1283
  8
0
 10
1884.153433318235
 20
1581.034373575789
 30
0.0
  0
VERTEX
  5
1284
  8
0
 10
1884.153433318235
 20
1534.156111814229
 30
0.0
  0
VERTEX
  5
1285
  8
0
 10
1883.353433318236
 20
1534.156111814229
 30
0.0
  0
VERTEX
  5
1286
  8
0
 10
1883.353433318236
 20
1582.343773102405
 30
0.0
  0
SEQEND
  5
15C5
  8
0
  0
POLYLINE
  5
8A4
  8
0
 66
     1
 10
0.0
 20
0.0
 30
0.0
 70
     1
  0
VERTEX
  5
1287
  8
0
 10
1877.903433318235
 20
1534.156111814229
 30
0.0
  0
VERTEX
  5
1288
  8
0
 10
1877.103433318236
 20
1534.156111814229
 30
0.0
  0
VERTEX
  5
1289
  8
0
 10
1877.103433318236
 20
1574.156111814229
 30
0.0
  0
VERTEX
  5
128A
  8
0
 10
1877.903433318235
 20
1574.156111814229
 30
0.0
  0
SEQEND
  5
15C6
  8
0
  0
POLYLINE
  5
8A5
  8
0
 66
     1
 10
0.0
 20
0.0
 30
0.0
 70
     1
  0
VERTEX
  5
128B
  8
0
 10
1871.653433318235
 20
1534.156111814229
 30
0.0
  0
VERTEX
  5
128C
  8
0
 10
1870.853433318236
 20
1534.156111814229
 30
0.0
  0
VERTEX
  5
128D
  8
0
 10
1870.853433318236
 20
1574.156111814229
 30
0.0
  0
VERTEX
  5
128E
  8
0
 10
1871.653433318235
 20
1574.156111814229
 30
0.0
  0
SEQEND
  5
15C7
  8
0
  0
POLYLINE
  5
8A6
  8
0
 66
     1
 10
0.0
 20
0.0
 30
0.0
 70
     1
  0
VERTEX
  5
128F
  8
0
 10
1865.403433318235
 20
1534.156111814229
 30
0.0
  0
VERTEX
  5
1290
  8
0
 10
1864.603433318236
 20
1534.156111814229
 30
0.0
  0
VERTEX
  5
1291
  8
0
 10
1864.603433318236
 20
1574.156111814229
 30
0.0
  0
VERTEX
  5
1292
  8
0
 10
1865.403433318235
 20
1574.156111814229
 30
0.0
  0
SEQEND
  5
15C8
  8
0
  0
POLYLINE
  5
8A7
  8
0
 66
     1
 10
0.0
 20
0.0
 30
0.0
 70
     1
  0
VERTEX
  5
1293
  8
0
 10
1859.153433318235
 20
1534.156111814229
 30
0.0
  0
VERTEX
  5
1294
  8
0
 10
1858.353433318236
 20
1534.156111814229
 30
0.0
  0
VERTEX
  5
1295
  8
0
 10
1858.353433318236
 20
1574.156111814229
 30
0.0
  0
VERTEX
  5
1296
  8
0
 10
1859.153433318235
 20
1574.156111814229
 30
0.0
  0
SEQEND
  5
15C9
  8
0
  0
POLYLINE
  5
8A8
  8
0
 66
     1
 10
0.0
 20
0.0
 30
0.0
  0
VERTEX
  5
1297
  8
0
 10
1877.869361840745
 20
1590.624239214633
 30
0.0
  0
VERTEX
  5
1298
  8
0
 10
1877.869361840745
 20
1586.947210770047
 30
0.0
  0
VERTEX
  5
1299
  8
0
 10
1877.069361840745
 20
1586.947210770047
 30
0.0
  0
VERTEX
  5
129A
  8
0
 10
1877.069361840745
 20
1591.74250926044
 30
0.0
  0
SEQEND
  5
15CA
  8
0
  0
POLYLINE
  5
8A9
  8
0
 66
     1
 10
0.0
 20
0.0
 30
0.0
  0
VERTEX
  5
129B
  8
0
 10
1871.619361840745
 20
1598.853934258595
 30
0.0
  0
VERTEX
  5
129C
  8
0
 10
1871.619361840745
 20
1586.947210770047
 30
0.0
  0
VERTEX
  5
129D
  8
0
 10
1870.819361840745
 20
1586.947210770047
 30
0.0
  0
VERTEX
  5
129E
  8
0
 10
1870.819361840745
 20
1599.830266045414
 30
0.0
  0
SEQEND
  5
15CB
  8
0
  0
POLYLINE
  5
8AA
  8
0
 66
     1
 10
0.0
 20
0.0
 30
0.0
  0
VERTEX
  5
129F
  8
0
 10
1865.369361840745
 20
1606.08322269531
 30
0.0
  0
VERTEX
  5
12A0
  8
0
 10
1865.369361840745
 20
1586.947210770047
 30
0.0
  0
VERTEX
  5
12A1
  8
0
 10
1864.569361840745
 20
1586.947210770047
 30
0.0
  0
VERTEX
  5
12A2
  8
0
 10
1864.569361840745
 20
1606.947036622833
 30
0.0
  0
SEQEND
  5
15CC
  8
0
  0
POLYLINE
  5
8AB
  8
0
 66
     1
 10
0.0
 20
0.0
 30
0.0
  0
VERTEX
  5
12A3
  8
0
 10
1859.119361840745
 20
1612.504840545535
 30
0.0
  0
VERTEX
  5
12A4
  8
0
 10
1859.119361840745
 20
1586.947210770047
 30
0.0
  0
VERTEX
  5
12A5
  8
0
 10
1858.319361840745
 20
1586.947210770047
 30
0.0
  0
VERTEX
  5
12A6
  8
0
 10
1858.319361840745
 20
1613.275716952491
 30
0.0
  0
SEQEND
  5
15CD
  8
0
  0
POLYLINE
  5
8AC
  8
0
 66
     1
 10
0.0
 20
0.0
 30
0.0
  0
VERTEX
  5
12A7
  8
0
 10
1815.707470106601
 20
1642.324087232003
 30
0.0
  0
VERTEX
  5
12A8
  8
0
 10
1815.707470106601
 20
1637.044951006434
 30
0.0
  0
VERTEX
  5
12A9
  8
0
 10
1814.907470106602
 20
1637.044951006434
 30
0.0
  0
VERTEX
  5
12AA
  8
0
 10
1814.907470106602
 20
1642.691512199851
 30
0.0
  0
SEQEND
  5
15CE
  8
0
  0
POLYLINE
  5
8AD
  8
0
 66
     1
 10
0.0
 20
0.0
 30
0.0
  0
VERTEX
  5
12AB
  8
0
 10
1809.457470106601
 20
1645.052642762251
 30
0.0
  0
VERTEX
  5
12AC
  8
0
 10
1809.457470106601
 20
1637.044951006434
 30
0.0
  0
VERTEX
  5
12AD
  8
0
 10
1808.657470106602
 20
1637.044951006434
 30
0.0
  0
VERTEX
  5
12AE
  8
0
 10
1808.657470106602
 20
1645.378831018598
 30
0.0
  0
SEQEND
  5
15CF
  8
0
  0
POLYLINE
  5
8AE
  8
0
 66
     1
 10
0.0
 20
0.0
 30
0.0
  0
VERTEX
  5
12AF
  8
0
 10
1803.207470106601
 20
1647.466506279318
 30
0.0
  0
VERTEX
  5
12B0
  8
0
 10
1803.207470106601
 20
1637.044951006434
 30
0.0
  0
VERTEX
  5
12B1
  8
0
 10
1802.407470106602
 20
1637.044951006434
 30
0.0
  0
VERTEX
  5
12B2
  8
0
 10
1802.407470106602
 20
1647.753573921698
 30
0.0
  0
SEQEND
  5
15D0
  8
0
  0
POLYLINE
  5
8AF
  8
0
 66
     1
 10
0.0
 20
0.0
 30
0.0
  0
VERTEX
  5
12B3
  8
0
 10
1796.68865416895
 20
1649.665321044766
 30
0.0
  0
VERTEX
  5
12B4
  8
0
 10
1796.68865416895
 20
1637.099110266082
 30
0.0
  0
VERTEX
  5
12B5
  8
0
 10
1795.888654168949
 20
1637.099110266082
 30
0.0
  0
VERTEX
  5
12B6
  8
0
 10
1795.888654168949
 20
1649.913438660202
 30
0.0
  0
SEQEND
  5
15D1
  8
0
  0
POLYLINE
  5
8B0
  8
0
 66
     1
 10
0.0
 20
0.0
 30
0.0
  0
VERTEX
  5
12B7
  8
0
 10
1790.43865416895
 20
1651.480675991322
 30
0.0
  0
VERTEX
  5
12B8
  8
0
 10
1790.43865416895
 20
1637.099110266082
 30
0.0
  0
VERTEX
  5
12B9
  8
0
 10
1789.638654168949
 20
1637.099110266082
 30
0.0
  0
VERTEX
  5
12BA
  8
0
 10
1789.638654168949
 20
1651.692905915784
 30
0.0
  0
SEQEND
  5
15D2
  8
0
  0
POLYLINE
  5
8B1
  8
0
 66
     1
 10
0.0
 20
0.0
 30
0.0
  0
VERTEX
  5
12BB
  8
0
 10
1784.18865416895
 20
1653.019761606384
 30
0.0
  0
VERTEX
  5
12BC
  8
0
 10
1784.18865416895
 20
1637.099110266082
 30
0.0
  0
VERTEX
  5
12BD
  8
0
 10
1783.388654168949
 20
1637.099110266082
 30
0.0
  0
VERTEX
  5
12BE
  8
0
 10
1783.388654168949
 20
1653.197262731036
 30
0.0
  0
SEQEND
  5
15D3
  8
0
  0
POLYLINE
  5
8B2
  8
0
 66
     1
 10
0.0
 20
0.0
 30
0.0
  0
VERTEX
  5
12BF
  8
0
 10
1777.93865416895
 20
1654.290836901497
 30
0.0
  0
VERTEX
  5
12C0
  8
0
 10
1777.93865416895
 20
1637.099110266082
 30
0.0
  0
VERTEX
  5
12C1
  8
0
 10
1777.138654168949
 20
1637.099110266082
 30
0.0
  0
VERTEX
  5
12C2
  8
0
 10
1777.138654168949
 20
1654.434540415022
 30
0.0
  0
SEQEND
  5
15D4
  8
0
  0
POLYLINE
  5
8B3
  8
0
 66
     1
 10
0.0
 20
0.0
 30
0.0
  0
VERTEX
  5
12C3
  8
0
 10
1771.68865416895
 20
1655.300475780107
 30
0.0
  0
VERTEX
  5
12C4
  8
0
 10
1771.68865416895
 20
1637.099110266082
 30
0.0
  0
VERTEX
  5
12C5
  8
0
 10
1770.888654168949
 20
1637.099110266082
 30
0.0
  0
VERTEX
  5
12C6
  8
0
 10
1770.888654168949
 20
1655.411111300096
 30
0.0
  0
SEQEND
  5
15D5
  8
0
  0
POLYLINE
  5
8B4
  8
0
 66
     1
 10
0.0
 20
0.0
 30
0.0
  0
VERTEX
  5
12C7
  8
0
 10
1765.43865416895
 20
1656.053747347686
 30
0.0
  0
VERTEX
  5
12C8
  8
0
 10
1765.43865416895
 20
1637.099110266082
 30
0.0
  0
VERTEX
  5
12C9
  8
0
 10
1764.638654168949
 20
1637.099110266082
 30
0.0
  0
VERTEX
  5
12CA
  8
0
 10
1764.638654168949
 20
1656.131862336781
 30
0.0
  0
SEQEND
  5
15D6
  8
0
  0
POLYLINE
  5
8B5
  8
0
 66
     1
 10
0.0
 20
0.0
 30
0.0
  0
VERTEX
  5
12CB
  8
0
 10
1759.18865416895
 20
1656.554348370566
 30
0.0
  0
VERTEX
  5
12CC
  8
0
 10
1759.18865416895
 20
1637.099110266082
 30
0.0
  0
VERTEX
  5
12CD
  8
0
 10
1758.388654168949
 20
1637.099110266082
 30
0.0
  0
VERTEX
  5
12CE
  8
0
 10
1758.388654168949
 20
1656.600322102674
 30
0.0
  0
SEQEND
  5
15D7
  8
0
  0
POLYLINE
  5
8B6
  8
0
 66
     1
 10
0.0
 20
0.0
 30
0.0
  0
VERTEX
  5
12CF
  8
0
 10
1852.219085447834
 20
1504.687264546716
 30
0.0
  0
VERTEX
  5
12D0
  8
0
 10
1852.219085447834
 20
1524.156111814229
 30
0.0
  0
VERTEX
  5
12D1
  8
0
 10
1853.019085447835
 20
1524.156111814229
 30
0.0
  0
VERTEX
  5
12D2
  8
0
 10
1853.019085447835
 20
1504.687264546716
 30
0.0
  0
SEQEND
  5
15D8
  8
0
  0
POLYLINE
  5
8B7
  8
0
 66
     1
 10
0.0
 20
0.0
 30
0.0
  0
VERTEX
  5
12D3
  8
0
 10
1845.969085447834
 20
1504.687264546716
 30
0.0
  0
VERTEX
  5
12D4
  8
0
 10
1845.969085447834
 20
1524.156111814229
 30
0.0
  0
VERTEX
  5
12D5
  8
0
 10
1846.769085447835
 20
1524.156111814229
 30
0.0
  0
VERTEX
  5
12D6
  8
0
 10
1846.769085447835
 20
1504.687264546716
 30
0.0
  0
SEQEND
  5
15D9
  8
0
  0
POLYLINE
  5
8B8
  8
0
 66
     1
 10
0.0
 20
0.0
 30
0.0
  0
VERTEX
  5
12D7
  8
0
 10
1839.719085447834
 20
1504.687264546716
 30
0.0
  0
VERTEX
  5
12D8
  8
0
 10
1839.719085447834
 20
1524.156111814229
 30
0.0
  0
VERTEX
  5
12D9
  8
0
 10
1840.519085447835
 20
1524.156111814229
 30
0.0
  0
VERTEX
  5
12DA
  8
0
 10
1840.519085447835
 20
1504.687264546716
 30
0.0
  0
SEQEND
  5
15DA
  8
0
  0
POLYLINE
  5
8B9
  8
0
 66
     1
 10
0.0
 20
0.0
 30
0.0
  0
VERTEX
  5
12DB
  8
0
 10
1833.469085447834
 20
1504.687264546716
 30
0.0
  0
VERTEX
  5
12DC
  8
0
 10
1833.469085447834
 20
1524.156111814229
 30
0.0
  0
VERTEX
  5
12DD
  8
0
 10
1834.269085447835
 20
1524.156111814229
 30
0.0
  0
VERTEX
  5
12DE
  8
0
 10
1834.269085447835
 20
1504.687264546716
 30
0.0
  0
SEQEND
  5
15DB
  8
0
  0
POLYLINE
  5
8BA
  8
0
 66
     1
 10
0.0
 20
0.0
 30
0.0
  0
VERTEX
  5
12DF
  8
0
 10
1827.219085447834
 20
1504.687264546716
 30
0.0
  0
VERTEX
  5
12E0
  8
0
 10
1827.219085447834
 20
1524.156111814229
 30
0.0
  0
VERTEX
  5
12E1
  8
0
 10
1828.019085447835
 20
1524.156111814229
 30
0.0
  0
VERTEX
  5
12E2
  8
0
 10
1828.019085447835
 20
1504.687264546716
 30
0.0
  0
SEQEND
  5
15DC
  8
0
  0
POLYLINE
  5
8BB
  8
0
 66
     1
 10
0.0
 20
0.0
 30
0.0
  0
VERTEX
  5
12E3
  8
0
 10
1820.969085447834
 20
1504.687264546716
 30
0.0
  0
VERTEX
  5
12E4
  8
0
 10
1820.969085447834
 20
1524.156111814229
 30
0.0
  0
VERTEX
  5
12E5
  8
0
 10
1821.769085447835
 20
1524.156111814229
 30
0.0
  0
VERTEX
  5
12E6
  8
0
 10
1821.769085447835
 20
1504.687264546716
 30
0.0
  0
SEQEND
  5
15DD
  8
0
  0
POLYLINE
  5
8BC
  8
0
 66
     1
 10
0.0
 20
0.0
 30
0.0
  0
VERTEX
  5
12E7
  8
0
 10
1814.719085447834
 20
1504.687264546716
 30
0.0
  0
VERTEX
  5
12E8
  8
0
 10
1814.719085447834
 20
1524.156111814229
 30
0.0
  0
VERTEX
  5
12E9
  8
0
 10
1815.519085447835
 20
1524.156111814229
 30
0.0
  0
VERTEX
  5
12EA
  8
0
 10
1815.519085447835
 20
1504.687264546716
 30
0.0
  0
SEQEND
  5
15DE
  8
0
  0
POLYLINE
  5
8BD
  8
0
 66
     1
 10
0.0
 20
0.0
 30
0.0
  0
VERTEX
  5
12EB
  8
0
 10
1808.469085447834
 20
1504.687264546716
 30
0.0
  0
VERTEX
  5
12EC
  8
0
 10
1808.469085447834
 20
1524.156111814229
 30
0.0
  0
VERTEX
  5
12ED
  8
0
 10
1809.269085447835
 20
1524.156111814229
 30
0.0
  0
VERTEX
  5
12EE
  8
0
 10
1809.269085447835
 20
1504.687264546716
 30
0.0
  0
SEQEND
  5
15DF
  8
0
  0
POLYLINE
  5
8BE
  8
0
 66
     1
 10
0.0
 20
0.0
 30
0.0
  0
VERTEX
  5
12EF
  8
0
 10
1802.219085447834
 20
1504.687264546716
 30
0.0
  0
VERTEX
  5
12F0
  8
0
 10
1802.219085447834
 20
1524.156111814229
 30
0.0
  0
VERTEX
  5
12F1
  8
0
 10
1803.019085447835
 20
1524.156111814229
 30
0.0
  0
VERTEX
  5
12F2
  8
0
 10
1803.019085447835
 20
1504.687264546716
 30
0.0
  0
SEQEND
  5
15E0
  8
0
  0
POLYLINE
  5
8BF
  8
0
 66
     1
 10
0.0
 20
0.0
 30
0.0
  0
VERTEX
  5
12F3
  8
0
 10
1795.814752023637
 20
1504.687264546716
 30
0.0
  0
VERTEX
  5
12F4
  8
0
 10
1795.814752023637
 20
1524.156111814229
 30
0.0
  0
VERTEX
  5
12F5
  8
0
 10
1796.614752023637
 20
1524.156111814229
 30
0.0
  0
VERTEX
  5
12F6
  8
0
 10
1796.614752023637
 20
1504.687264546716
 30
0.0
  0
SEQEND
  5
15E1
  8
0
  0
POLYLINE
  5
8C0
  8
0
 66
     1
 10
0.0
 20
0.0
 30
0.0
  0
VERTEX
  5
12F7
  8
0
 10
1789.564752023637
 20
1504.687264546716
 30
0.0
  0
VERTEX
  5
12F8
  8
0
 10
1789.564752023637
 20
1524.156111814229
 30
0.0
  0
VERTEX
  5
12F9
  8
0
 10
1790.364752023637
 20
1524.156111814229
 30
0.0
  0
VERTEX
  5
12FA
  8
0
 10
1790.364752023637
 20
1504.687264546716
 30
0.0
  0
SEQEND
  5
15E2
  8
0
  0
POLYLINE
  5
8C1
  8
0
 66
     1
 10
0.0
 20
0.0
 30
0.0
  0
VERTEX
  5
12FB
  8
0
 10
1783.314752023637
 20
1504.687264546716
 30
0.0
  0
VERTEX
  5
12FC
  8
0
 10
1783.314752023637
 20
1524.156111814229
 30
0.0
  0
VERTEX
  5
12FD
  8
0
 10
1784.114752023637
 20
1524.156111814229
 30
0.0
  0
VERTEX
  5
12FE
  8
0
 10
1784.114752023637
 20
1504.687264546716
 30
0.0
  0
SEQEND
  5
15E3
  8
0
  0
POLYLINE
  5
8C2
  8
0
 66
     1
 10
0.0
 20
0.0
 30
0.0
  0
VERTEX
  5
12FF
  8
0
 10
1777.064752023637
 20
1504.687264546716
 30
0.0
  0
VERTEX
  5
1300
  8
0
 10
1777.064752023637
 20
1524.156111814229
 30
0.0
  0
VERTEX
  5
1301
  8
0
 10
1777.864752023637
 20
1524.156111814229
 30
0.0
  0
VERTEX
  5
1302
  8
0
 10
1777.864752023637
 20
1504.687264546716
 30
0.0
  0
SEQEND
  5
15E4
  8
0
  0
POLYLINE
  5
8C3
  8
0
 66
     1
 10
0.0
 20
0.0
 30
0.0
  0
VERTEX
  5
1303
  8
0
 10
1770.814752023637
 20
1504.687264546716
 30
0.0
  0
VERTEX
  5
1304
  8
0
 10
1770.814752023637
 20
1524.156111814229
 30
0.0
  0
VERTEX
  5
1305
  8
0
 10
1771.614752023637
 20
1524.156111814229
 30
0.0
  0
VERTEX
  5
1306
  8
0
 10
1771.614752023637
 20
1504.687264546716
 30
0.0
  0
SEQEND
  5
15E5
  8
0
  0
POLYLINE
  5
8C4
  8
0
 66
     1
 10
0.0
 20
0.0
 30
0.0
  0
VERTEX
  5
1307
  8
0
 10
1764.564752023637
 20
1504.687264546716
 30
0.0
  0
VERTEX
  5
1308
  8
0
 10
1764.564752023637
 20
1524.156111814229
 30
0.0
  0
VERTEX
  5
1309
  8
0
 10
1765.364752023637
 20
1524.156111814229
 30
0.0
  0
VERTEX
  5
130A
  8
0
 10
1765.364752023637
 20
1504.687264546716
 30
0.0
  0
SEQEND
  5
15E6
  8
0
  0
POLYLINE
  5
8C5
  8
0
 66
     1
 10
0.0
 20
0.0
 30
0.0
  0
VERTEX
  5
130B
  8
0
 10
1758.314752023637
 20
1504.687264546716
 30
0.0
  0
VERTEX
  5
130C
  8
0
 10
1758.314752023637
 20
1524.156111814229
 30
0.0
  0
VERTEX
  5
130D
  8
0
 10
1759.114752023637
 20
1524.156111814229
 30
0.0
  0
VERTEX
  5
130E
  8
0
 10
1759.114752023637
 20
1504.687264546716
 30
0.0
  0
SEQEND
  5
15E7
  8
0
  0
POLYLINE
  5
8C6
  8
0
 66
     1
 10
0.0
 20
0.0
 30
0.0
  0
VERTEX
  5
130F
  8
0
 10
1895.853433318236
 20
1504.687264546716
 30
0.0
  0
VERTEX
  5
1310
  8
0
 10
1895.853433318236
 20
1524.156111814229
 30
0.0
  0
VERTEX
  5
1311
  8
0
 10
1896.653433318235
 20
1524.156111814229
 30
0.0
  0
VERTEX
  5
1312
  8
0
 10
1896.653433318235
 20
1504.687264546716
 30
0.0
  0
SEQEND
  5
15E8
  8
0
  0
POLYLINE
  5
8C7
  8
0
 66
     1
 10
0.0
 20
0.0
 30
0.0
  0
VERTEX
  5
1313
  8
0
 10
1889.603433318236
 20
1504.687264546716
 30
0.0
  0
VERTEX
  5
1314
  8
0
 10
1889.603433318236
 20
1524.156111814229
 30
0.0
  0
VERTEX
  5
1315
  8
0
 10
1890.403433318235
 20
1524.156111814229
 30
0.0
  0
VERTEX
  5
1316
  8
0
 10
1890.403433318235
 20
1504.687264546716
 30
0.0
  0
SEQEND
  5
15E9
  8
0
  0
POLYLINE
  5
8C8
  8
0
 66
     1
 10
0.0
 20
0.0
 30
0.0
  0
VERTEX
  5
1317
  8
0
 10
1883.353433318236
 20
1504.981041922382
 30
0.0
  0
VERTEX
  5
1318
  8
0
 10
1883.353433318236
 20
1524.156111814229
 30
0.0
  0
VERTEX
  5
1319
  8
0
 10
1884.153433318235
 20
1524.156111814229
 30
0.0
  0
VERTEX
  5
131A
  8
0
 10
1884.153433318235
 20
1504.687264546716
 30
0.0
  0
SEQEND
  5
15EA
  8
0
  0
POLYLINE
  5
8C9
  8
0
 66
     1
 10
0.0
 20
0.0
 30
0.0
  0
VERTEX
  5
131B
  8
0
 10
1877.103433318236
 20
1505.224566180592
 30
0.0
  0
VERTEX
  5
131C
  8
0
 10
1877.103433318236
 20
1524.156111814229
 30
0.0
  0
VERTEX
  5
131D
  8
0
 10
1877.903433318235
 20
1524.156111814229
 30
0.0
  0
VERTEX
  5
131E
  8
0
 10
1877.903433318235
 20
1505.597036544185
 30
0.0
  0
SEQEND
  5
15EB
  8
0
  0
POLYLINE
  5
8CA
  8
0
 66
     1
 10
0.0
 20
0.0
 30
0.0
  0
VERTEX
  5
131F
  8
0
 10
1870.853433318236
 20
1504.687264546716
 30
0.0
  0
VERTEX
  5
1320
  8
0
 10
1870.853433318236
 20
1524.156111814229
 30
0.0
  0
VERTEX
  5
1321
  8
0
 10
1871.653433318235
 20
1524.156111814229
 30
0.0
  0
VERTEX
  5
1322
  8
0
 10
1871.653433318235
 20
1504.687264546716
 30
0.0
  0
SEQEND
  5
15EC
  8
0
  0
POLYLINE
  5
8CB
  8
0
 66
     1
 10
0.0
 20
0.0
 30
0.0
  0
VERTEX
  5
1323
  8
0
 10
1864.603433318236
 20
1504.687264546716
 30
0.0
  0
VERTEX
  5
1324
  8
0
 10
1864.603433318236
 20
1524.156111814229
 30
0.0
  0
VERTEX
  5
1325
  8
0
 10
1865.403433318235
 20
1524.156111814229
 30
0.0
  0
VERTEX
  5
1326
  8
0
 10
1865.403433318235
 20
1504.687264546716
 30
0.0
  0
SEQEND
  5
15ED
  8
0
  0
POLYLINE
  5
8CC
  8
0
 66
     1
 10
0.0
 20
0.0
 30
0.0
  0
VERTEX
  5
1327
  8
0
 10
1858.353433318236
 20
1504.687264546716
 30
0.0
  0
VERTEX
  5
1328
  8
0
 10
1858.353433318236
 20
1524.156111814229
 30
0.0
  0
VERTEX
  5
1329
  8
0
 10
1859.153433318235
 20
1524.156111814229
 30
0.0
  0
VERTEX
  5
132A
  8
0
 10
1859.153433318235
 20
1504.687264546716
 30
0.0
  0
SEQEND
  5
15EE
  8
0
  0
LINE
  5
8CD
  8
0
 10
1906.085919735776
 20
1504.687264546716
 30
0.0
 11
1905.285919735776
 21
1504.687264546716
 31
0.0
  0
LINE
  5
8CE
  8
0
 10
1902.907587621339
 20
1504.687264546716
 30
0.0
 11
1902.107587621339
 21
1504.687264546716
 31
0.0
  0
LINE
  5
8CF
  8
0
 10
1899.835919735776
 20
1504.687264546716
 30
0.0
 11
1899.035919735776
 21
1504.687264546716
 31
0.0
  0
LINE
  5
8D0
  8
0
 10
1896.653433318235
 20
1504.687264546716
 30
0.0
 11
1895.853433318236
 21
1504.687264546716
 31
0.0
  0
LINE
  5
8D1
  8
0
 10
1893.585919735776
 20
1504.687264546716
 30
0.0
 11
1892.785919735776
 21
1504.687264546716
 31
0.0
  0
LINE
  5
8D2
  8
0
 10
1890.403433318235
 20
1504.687264546716
 30
0.0
 11
1889.603433318236
 21
1504.687264546716
 31
0.0
  0
LINE
  5
8D3
  8
0
 10
1887.335919735776
 20
1504.687264546716
 30
0.0
 11
1886.535919735776
 21
1504.687264546716
 31
0.0
  0
LINE
  5
8D4
  8
0
 10
1884.153433318235
 20
1504.687264546716
 30
0.0
 11
1883.757318773499
 21
1504.687264546716
 31
0.0
  0
LINE
  5
8D7
  8
0
 10
1874.835919735776
 20
1504.687264546716
 30
0.0
 11
1874.035919735776
 21
1504.687264546716
 31
0.0
  0
LINE
  5
8D8
  8
0
 10
1871.653433318235
 20
1504.687264546716
 30
0.0
 11
1870.853433318236
 21
1504.687264546716
 31
0.0
  0
LINE
  5
8D9
  8
0
 10
1868.585919735776
 20
1504.687264546716
 30
0.0
 11
1867.785919735776
 21
1504.687264546716
 31
0.0
  0
LINE
  5
8DA
  8
0
 10
1865.403433318235
 20
1504.687264546716
 30
0.0
 11
1864.603433318236
 21
1504.687264546716
 31
0.0
  0
LINE
  5
8DB
  8
0
 10
1862.335919735776
 20
1504.687264546716
 30
0.0
 11
1861.535919735776
 21
1504.687264546716
 31
0.0
  0
LINE
  5
8DC
  8
0
 10
1859.153433318235
 20
1504.687264546716
 30
0.0
 11
1858.353433318236
 21
1504.687264546716
 31
0.0
  0
LINE
  5
8DD
  8
0
 10
1856.085919735776
 20
1504.687264546716
 30
0.0
 11
1855.285919735776
 21
1504.687264546716
 31
0.0
  0
LINE
  5
8DE
  8
0
 10
1853.019085447835
 20
1504.687264546716
 30
0.0
 11
1852.219085447834
 21
1504.687264546716
 31
0.0
  0
LINE
  5
8DF
  8
0
 10
1849.835919735776
 20
1504.687264546716
 30
0.0
 11
1849.035919735776
 21
1504.687264546716
 31
0.0
  0
LINE
  5
8E0
  8
0
 10
1846.769085447835
 20
1504.687264546716
 30
0.0
 11
1845.969085447834
 21
1504.687264546716
 31
0.0
  0
LINE
  5
8E1
  8
0
 10
1843.585919735776
 20
1504.687264546716
 30
0.0
 11
1842.785919735776
 21
1504.687264546716
 31
0.0
  0
LINE
  5
8E2
  8
0
 10
1840.519085447835
 20
1504.687264546716
 30
0.0
 11
1839.719085447834
 21
1504.687264546716
 31
0.0
  0
LINE
  5
8E3
  8
0
 10
1837.335919735776
 20
1504.687264546716
 30
0.0
 11
1836.535919735776
 21
1504.687264546716
 31
0.0
  0
LINE
  5
8E4
  8
0
 10
1834.269085447835
 20
1504.687264546716
 30
0.0
 11
1833.469085447834
 21
1504.687264546716
 31
0.0
  0
LINE
  5
8E5
  8
0
 10
1831.085919735776
 20
1504.687264546716
 30
0.0
 11
1830.285919735776
 21
1504.687264546716
 31
0.0
  0
LINE
  5
8E6
  8
0
 10
1828.019085447835
 20
1504.687264546716
 30
0.0
 11
1827.219085447834
 21
1504.687264546716
 31
0.0
  0
LINE
  5
8E7
  8
0
 10
1824.835919735776
 20
1504.687264546716
 30
0.0
 11
1824.035919735776
 21
1504.687264546716
 31
0.0
  0
LINE
  5
8E8
  8
0
 10
1821.769085447835
 20
1504.687264546716
 30
0.0
 11
1820.969085447834
 21
1504.687264546716
 31
0.0
  0
LINE
  5
8E9
  8
0
 10
1818.585919735776
 20
1504.687264546716
 30
0.0
 11
1817.785919735776
 21
1504.687264546716
 31
0.0
  0
LINE
  5
8EA
  8
0
 10
1815.519085447835
 20
1504.687264546716
 30
0.0
 11
1814.719085447834
 21
1504.687264546716
 31
0.0
  0
LINE
  5
8EB
  8
0
 10
1812.335919735776
 20
1504.687264546716
 30
0.0
 11
1811.535919735776
 21
1504.687264546716
 31
0.0
  0
LINE
  5
8EC
  8
0
 10
1809.269085447835
 20
1504.687264546716
 30
0.0
 11
1808.469085447834
 21
1504.687264546716
 31
0.0
  0
LINE
  5
8ED
  8
0
 10
1806.085919735776
 20
1504.687264546716
 30
0.0
 11
1805.285919735776
 21
1504.687264546716
 31
0.0
  0
LINE
  5
8EE
  8
0
 10
1803.019085447835
 20
1504.687264546716
 30
0.0
 11
1802.219085447834
 21
1504.687264546716
 31
0.0
  0
LINE
  5
8EF
  8
0
 10
1799.835919735776
 20
1504.687264546716
 30
0.0
 11
1799.035919735776
 21
1504.687264546716
 31
0.0
  0
LINE
  5
8F0
  8
0
 10
1796.614752023637
 20
1504.687264546716
 30
0.0
 11
1795.814752023637
 21
1504.687264546716
 31
0.0
  0
LINE
  5
8F1
  8
0
 10
1793.585919735776
 20
1504.687264546716
 30
0.0
 11
1792.785919735776
 21
1504.687264546716
 31
0.0
  0
LINE
  5
8F2
  8
0
 10
1790.364752023637
 20
1504.687264546716
 30
0.0
 11
1789.564752023637
 21
1504.687264546716
 31
0.0
  0
LINE
  5
8F3
  8
0
 10
1787.335919735776
 20
1504.687264546716
 30
0.0
 11
1786.535919735776
 21
1504.687264546716
 31
0.0
  0
LINE
  5
8F4
  8
0
 10
1784.114752023637
 20
1504.687264546716
 30
0.0
 11
1783.314752023637
 21
1504.687264546716
 31
0.0
  0
LINE
  5
8F5
  8
0
 10
1781.085919735776
 20
1504.687264546716
 30
0.0
 11
1780.285919735776
 21
1504.687264546716
 31
0.0
  0
LINE
  5
8F6
  8
0
 10
1777.864752023637
 20
1504.687264546716
 30
0.0
 11
1777.064752023637
 21
1504.687264546716
 31
0.0
  0
LINE
  5
8F7
  8
0
 10
1774.835919735776
 20
1504.687264546716
 30
0.0
 11
1774.035919735776
 21
1504.687264546716
 31
0.0
  0
LINE
  5
8F8
  8
0
 10
1771.614752023637
 20
1504.687264546716
 30
0.0
 11
1770.814752023637
 21
1504.687264546716
 31
0.0
  0
LINE
  5
8F9
  8
0
 10
1768.585919735776
 20
1504.687264546716
 30
0.0
 11
1767.785919735776
 21
1504.687264546716
 31
0.0
  0
LINE
  5
8FA
  8
0
 10
1765.364752023637
 20
1504.687264546716
 30
0.0
 11
1764.564752023637
 21
1504.687264546716
 31
0.0
  0
LINE
  5
8FB
  8
0
 10
1762.335919735776
 20
1504.687264546716
 30
0.0
 11
1761.535919735776
 21
1504.687264546716
 31
0.0
  0
LINE
  5
8FC
  8
0
 10
1759.114752023637
 20
1504.687264546716
 30
0.0
 11
1758.314752023637
 21
1504.687264546716
 31
0.0
  0
LINE
  5
8FD
  8
0
 10
1756.085919735776
 20
1504.687264546716
 30
0.0
 11
1755.285919735776
 21
1504.687264546716
 31
0.0
  0
POLYLINE
  5
8FE
  8
0
 66
     1
 10
0.0
 20
0.0
 30
0.0
  0
VERTEX
  5
132B
  8
0
 10
1902.107587621339
 20
1504.687264546716
 30
0.0
  0
VERTEX
  5
132C
  8
0
 10
1902.107587621339
 20
1537.858437637649
 30
0.0
  0
SEQEND
  5
15EF
  8
0
  0
POLYLINE
  5
8FF
  8
0
 66
     1
 10
0.0
 20
0.0
 30
0.0
  0
VERTEX
  5
132D
  8
0
 10
1902.907587621339
 20
1534.496359495942
 30
0.0
  0
VERTEX
  5
132E
  8
0
 10
1902.907587621339
 20
1504.687264546716
 30
0.0
  0
SEQEND
  5
15F0
  8
0
  0
ARC
  5
902
  8
0
 10
1880.029069932407
 20
1499.986183758334
 30
0.0
 40
6.0
 50
51.58340019553446
 51
56.35396686369691
  0
ARC
  5
903
  8
0
 10
1749.988909155518
 20
1630.023068194234
 30
0.0
 40
6.0
 50
175.4862208026133
 51
183.1318850228304
  0
ARC
  5
904
  8
0
 10
1750.005640601803
 20
1370.003980079506
 30
0.0
 40
6.5
 50
196.1503392747672
 51
213.127321195862
  0
ARC
  5
905
  8
0
 10
1620.03681428164
 20
1500.179325550133
 30
0.0
 40
6.0
 50
117.6264900180346
 51
131.1790286156675
  0
POLYLINE
  5
906
  8
0
 66
     1
 10
0.0
 20
0.0
 30
0.0
  0
VERTEX
  5
132F
  8
0
 10
1622.819048548895
 20
1505.495261261004
 30
0.0
  0
VERTEX
  5
1330
  8
0
 10
1639.595751098683
 20
1505.495261261004
 30
0.0
  0
VERTEX
  5
1331
  8
0
 10
1639.595751098683
 20
1504.695261261004
 30
0.0
  0
VERTEX
  5
1332
  8
0
 10
1623.987298385555
 20
1504.695261261004
 30
0.0
  0
SEQEND
  5
15F1
  8
0
  0
POLYLINE
  5
907
  8
0
 66
     1
 10
0.0
 20
0.0
 30
0.0
  0
VERTEX
  5
1333
  8
0
 10
1616.086330177725
 20
1504.695261261004
 30
0.0
  0
VERTEX
  5
1334
  8
0
 10
1592.586118789192
 20
1504.695261261004
 30
0.0
  0
SEQEND
  5
15F2
  8
0
  0
POLYLINE
  5
908
  8
0
 66
     1
 10
0.0
 20
0.0
 30
0.0
  0
VERTEX
  5
1335
  8
0
 10
1622.819048548895
 20
1505.495261261004
 30
0.0
  0
VERTEX
  5
1336
  8
0
 10
1639.595751098683
 20
1505.495261261004
 30
0.0
  0
VERTEX
  5
1337
  8
0
 10
1639.595751098683
 20
1504.695261261004
 30
0.0
  0
VERTEX
  5
1338
  8
0
 10
1623.987298385555
 20
1504.695261261004
 30
0.0
  0
SEQEND
  5
15F3
  8
0
  0
POLYLINE
  5
909
  8
0
 66
     1
 10
0.0
 20
0.0
 30
0.0
  0
VERTEX
  5
1339
  8
0
 10
1616.086330177725
 20
1504.695261261004
 30
0.0
  0
VERTEX
  5
133A
  8
0
 10
1592.586118789192
 20
1504.695261261004
 30
0.0
  0
SEQEND
  5
15F4
  8
0
  0
ARC
  5
90A
  8
0
 10
1620.03681428164
 20
1500.179325550133
 30
0.0
 40
6.0
 50
48.82097138433249
 51
62.37350998196536
  0
ARC
  5
90B
  8
0
 10
1620.03681428164
 20
1500.179325550133
 30
0.0
 40
6.0
 50
288.5403478271414
 51
296.8274886773333
  0
ARC
  5
90C
  8
0
 10
1620.03681428164
 20
1500.179325550133
 30
0.0
 40
6.0
 50
257.734501021257
 51
265.4626655106188
  0
ARC
  5
90D
  8
0
 10
1880.029069932407
 20
1499.986183758334
 30
0.0
 40
6.0
 50
79.85489901402016
 51
87.54651530443704
  0
ARC
  5
90E
  8
0
 10
1880.029069932407
 20
1499.986183758334
 30
0.0
 40
6.0
 50
110.7488806635183
 51
119.1833587043361
  0
ARC
  5
90F
  8
0
 10
1880.029069932407
 20
1499.986183758334
 30
0.0
 40
6.0
 50
238.4195407918716
 51
260.143282443061
  0
POLYLINE
  5
910
  8
0
 66
     1
 10
0.0
 20
0.0
 30
0.0
  0
VERTEX
  5
133B
  8
0
 10
1883.171242290681
 20
1494.874750214709
 30
0.0
  0
VERTEX
  5
133C
  8
0
 10
1907.325617741482
 20
1494.874750214709
 30
0.0
  0
SEQEND
  5
15F5
  8
0
  0
POLYLINE
  5
911
  8
0
 66
     1
 10
0.0
 20
0.0
 30
0.0
  0
VERTEX
  5
133D
  8
0
 10
1883.171242290681
 20
1494.874750214709
 30
0.0
  0
VERTEX
  5
133E
  8
0
 10
1907.325617741482
 20
1494.874750214709
 30
0.0
  0
SEQEND
  5
15F6
  8
0
  0
ARC
  5
912
  8
0
 10
1880.029069932407
 20
1499.986183758334
 30
0.0
 40
6.0
 50
279.856717556939
 51
301.5804592081284
  0
POLYLINE
  5
913
  8
0
 66
     1
 10
0.0
 20
0.0
 30
0.0
  0
VERTEX
  5
133F
  8
0
 10
1879.001960659105
 20
1494.074750214709
 30
0.0
  0
VERTEX
  5
1340
  8
0
 10
1860.315985431991
 20
1494.074750214709
 30
0.0
  0
VERTEX
  5
1341
  8
0
 10
1860.315985431991
 20
1494.874750214709
 30
0.0
  0
VERTEX
  5
1342
  8
0
 10
1876.886897574132
 20
1494.874750214709
 30
0.0
  0
SEQEND
  5
15F7
  8
0
  0
POLYLINE
  5
914
  8
0
 66
     1
 10
0.0
 20
0.0
 30
0.0
  0
VERTEX
  5
1343
  8
0
 10
1879.001960659105
 20
1494.074750214709
 30
0.0
  0
VERTEX
  5
1344
  8
0
 10
1860.315985431991
 20
1494.074750214709
 30
0.0
  0
VERTEX
  5
1345
  8
0
 10
1860.315985431991
 20
1494.874750214709
 30
0.0
  0
VERTEX
  5
1346
  8
0
 10
1876.886897574132
 20
1494.874750214709
 30
0.0
  0
SEQEND
  5
15F8
  8
0
  0
ARC
  5
915
  8
0
 10
1749.988909155518
 20
1630.023068194234
 30
0.0
 40
6.0
 50
206.8538057838614
 51
206.9136561714974
  0
POLYLINE
  5
917
  8
0
 66
     1
 10
0.0
 20
0.0
 30
0.0
  0
VERTEX
  5
1347
  8
0
 10
1755.285919735776
 20
1632.841166651108
 30
0.0
  0
VERTEX
  5
1348
  8
0
 10
1755.285919735776
 20
1656.739916901117
 30
0.0
  0
SEQEND
  5
15F9
  8
0
  0
POLYLINE
  5
918
  8
0
 66
     1
 10
0.0
 20
0.0
 30
0.0
  0
VERTEX
  5
1349
  8
0
 10
1755.285919735776
 20
1632.841166651108
 30
0.0
  0
VERTEX
  5
134A
  8
0
 10
1755.285919735776
 20
1656.739916901117
 30
0.0
  0
SEQEND
  5
15FA
  8
0
  0
LINE
  5
91A
  8
0
 10
1755.285919735776
 20
1632.841166651107
 30
0.0
 11
1756.085919735776
 21
1631.430386279487
 31
0.0
  0
LINE
  5
91C
  8
0
 10
1756.085919735776
 20
1628.496049725668
 30
0.0
 11
1755.285919735776
 21
1627.204969737361
 31
0.0
  0
POLYLINE
  5
91F
  8
0
 66
     1
 10
0.0
 20
0.0
 30
0.0
  0
VERTEX
  5
134B
  8
0
 10
1756.085919735776
 20
1628.496049725668
 30
0.0
  0
VERTEX
  5
134C
  8
0
 10
1756.085919735776
 20
1609.730284591625
 30
0.0
  0
VERTEX
  5
134D
  8
0
 10
1755.285919735776
 20
1609.730284591625
 30
0.0
  0
VERTEX
  5
134E
  8
0
 10
1755.285919735776
 20
1627.204969737361
 30
0.0
  0
SEQEND
  5
15FB
  8
0
  0
POLYLINE
  5
920
  8
0
 66
     1
 10
0.0
 20
0.0
 30
0.0
  0
VERTEX
  5
134F
  8
0
 10
1756.085919735776
 20
1628.496049725668
 30
0.0
  0
VERTEX
  5
1350
  8
0
 10
1756.085919735776
 20
1609.730284591625
 30
0.0
  0
VERTEX
  5
1351
  8
0
 10
1755.285919735776
 20
1609.730284591625
 30
0.0
  0
VERTEX
  5
1352
  8
0
 10
1755.285919735776
 20
1627.204969737361
 30
0.0
  0
SEQEND
  5
15FC
  8
0
  0
POLYLINE
  5
922
  8
0
 66
     1
 10
0.0
 20
0.0
 30
0.0
  0
VERTEX
  5
1353
  8
0
 10
1743.762162201076
 20
1371.812011456349
 30
0.0
  0
VERTEX
  5
1354
  8
0
 10
1743.762162201076
 20
1390.010991972435
 30
0.0
  0
VERTEX
  5
1355
  8
0
 10
1744.562162201076
 20
1390.010991972435
 30
0.0
  0
VERTEX
  5
1356
  8
0
 10
1744.562162201076
 20
1373.556238924356
 30
0.0
  0
SEQEND
  5
15FD
  8
0
  0
POLYLINE
  5
923
  8
0
 66
     1
 10
0.0
 20
0.0
 30
0.0
  0
VERTEX
  5
1357
  8
0
 10
1743.762162201076
 20
1371.812011456349
 30
0.0
  0
VERTEX
  5
1358
  8
0
 10
1743.762162201076
 20
1390.010991972435
 30
0.0
  0
VERTEX
  5
1359
  8
0
 10
1744.562162201076
 20
1390.010991972435
 30
0.0
  0
VERTEX
  5
135A
  8
0
 10
1744.562162201076
 20
1373.556238924356
 30
0.0
  0
SEQEND
  5
15FE
  8
0
  0
POLYLINE
  5
924
  8
0
 66
     1
 10
0.0
 20
0.0
 30
0.0
  0
VERTEX
  5
135B
  8
0
 10
1744.562162201076
 20
1366.451721234656
 30
0.0
  0
VERTEX
  5
135C
  8
0
 10
1744.562162201076
 20
1343.001359662945
 30
0.0
  0
SEQEND
  5
15FF
  8
0
  0
ARC
  5
925
  8
0
 10
1750.005640601803
 20
1370.003980079506
 30
0.0
 40
6.5
 50
351.7809251678173
 51
358.8607978896632
  0
ARC
  5
926
  8
0
 10
1750.005640601803
 20
1370.003980079506
 30
0.0
 40
6.5
 50
20.28284699890351
 51
28.01688703234089
  0
ARC
  5
927
  8
0
 10
1750.005640601803
 20
1370.003980079506
 30
0.0
 40
6.5
 50
146.872678804138
 51
163.8496607252327
  0
ARC
  5
928
  8
0
 10
1750.005640601803
 20
1370.003980079506
 30
0.0
 40
6.5
 50
324.1308904249373
 51
330.5406009928705
  0
POLYLINE
  5
929
  8
0
 66
     1
 10
0.0
 20
0.0
 30
0.0
  0
VERTEX
  5
135D
  8
0
 10
1744.562162201076
 20
1366.451721234656
 30
0.0
  0
VERTEX
  5
135E
  8
0
 10
1744.562162201076
 20
1343.001359662945
 30
0.0
  0
SEQEND
  5
1600
  8
0
  0
ENDSEC
  0
EOF
